Unwound

Usual Dosage

Unwound

tabs

by  CARLLUZ

save to print version add songbook text version e-mail correct tuner
chordsukulelecavacokeyboardtabbassdrumsharmonicaflute Guitar Pro
close

there isn't a video lesson for this song

chords

Usual Dosage

	  		TUNING: Drop D (D A D G B E) 



Intro: 
E|---(0)------(0)---------------------------------|| 
B|-2-p0-------(0)------------(0)------(0)---------|| 
G|-4-----------4-----------2-p0--------0----(0)-0-|| x 3 
D|(4)---(4)-4--------4--4-(4)----4--4----(4)-4-(4)|| 
A|------------------------------------------------|| 
D|------------------------------------------------|| 
+ 
E|------------------------------------------------| 
B|-------1-----------1--------1--------1----------| 
G|----3-----3-----3-----3-----3--3--3--2--0-----0-| 
D|-3-----------3-----------3--2--2--2--2--0--0----| 
A|------------------------------------------------| 
D|------------------------------------------------| 
+ 
E|---(0)------(0)---------------------------------|| 
B|-2-p0-------(0)------------(0)------(0)---------|| 
G|-4-----------4-----------2-p0--------0----(0)-0-|| x 3 
D|(4)---(4)-4--------4--4-(4)----4--4----(4)-4-(4)|| 
A|------------------------------------------------|| 
D|------------------------------------------------|| 
+ 
E|------------------------------------------------| 
B|-------1-----------1-----------------1----------| 
G|----3-----3-----3-----3-----3--3--3--3--0-----0-| 
D|-3-----------3-----------3--2--2--2--2--0--0----| 
A|------------------------------------------------| 
D|------------------------------------------------| 
+ 
E|---(0)------(0)---------------------------------|| 
B|-2-p0-------(0)------------(0)------(0)---------|| 
G|-4-----------4-----------2-p0--------0----(0)-0-|| x 3 
D|(4)---(4)-4--------4--4-(4)----4--4----(4)-4-(4)|| 
A|------------------------------------------------|| 
D|------------------------------------------------|| 
+ 
E|------------------------------------------------| 
B|-------1-----------1--------1--------1----------| 
G|----3-----3-----3-----3-----3--3--3--2--0--0----| 
D|-3-----------3-----------3--2--2--2--2--0--0----| 
A|------------------------------------------------| 
D|------------------------------------------------| 
+ 
E|------------(0)(0)------------------------------|| 
B|-------------2-p0-------------------------------|| 
G|------------(2)(0)----------2-p0--------0-------|| x 4 
D|-0--------------------------------0--4b----4-p0-|| 
A|-0----------------------------------------------|| 
D|-0-----------------------3b---------------------|| 
+ 
E|------------------------------------------------|| 
B|-------------------------0----------------------|| 
G|----------------------------0-------------------|| x 4 
D|-0-----------------------------0----------------|| 
A|-0--------------------------------3b------------|| 
D|-0-----------------------------------------4b---|| 



VERSE I: 
E|------------(0)(0)------------------------------|| 
B|-------------2-p0-------------------------------|| 
G|------------(2)(0)----------2-p0--------0-------|| x 4 
D|-0--------------------------------0--4b----4-p0-|| 
A|-0----------------------------------------------|| 
D|-0-----------------------3b---------------------|| 
+ 
E|------------------------------------------------|| 
B|-------------------------0----------------------|| 
G|(0)-------------------------0-------------------|| x 12 
D|(0)----------------------------0----------------|| 
A|-0--------------------------------3b------------|| 
D|-0-----------------------------------------4b---|| 



Bridge: 
E|------------------------------------------------| 
B|------------------------------------------------| 
G|(0)---------------------------------------------| 
D|-0----------------------------------------------| 
A|-0----------------------------------------------| 
D|-0----------------------------------------------| 
+ 
  * improvised strumming strings behind bridge 
E|------------------------------------------------|| 
B|------------------------------------------------|| 
G|------------------------------------------------|| x 10 
D|------------------------------------------------|| 
A|------------------------------------------------|| 
D|------------------------------------------------|| 
+ 
E|------------------------------------------------| 
B|-------------------------0--------0--0--------0-| 
G|-------------------------------3-----------3----| 
D|------------------------------------------------| 
A|------------------------------------------------| 
D|------------------------------------------------| 
+ 
E|------------------------------------------------| 
B|----0-----0--------0--------0-----0--------0----| 
G|-3-----3-----4--4--------4b-4~-4~-4b-4~-4~-4~---| 
D|------------------------------------------------| 
A|------------------------------------------------| 
D|------------------------------------------------| 
+ 
E|------------------------------------------------| 
B|----0-----0--------0--------0-----0--------0----| 
G|-4b-4~-4b-4b-4b-4b-4b-4b-4~-4~-4~-4~-4~-4~-4~---| 
D|------------------------------------------------| 
A|------------------------------------------------| 
D|------------------------------------------------| 
+ 
 PM______________________________________________| 
E|------------------------------------------------|| 
B|------------------------------------------------|| 
G|------------------------------------------------|| x 7 
D|------------------------------------------------|| 
A|-0--0--0--0--0--0--0--0--0--0--0--0--0--0--0--0-|| 
D|-0--0--0--0--0--0--0--0--0--0--0--0--0--0--0--0-|| 
+ 
 PM______________________|                   FB 
E|-------------------------------------------#----| 
B|-------------------------------------------#----| 
G|-------------------------------------------#----| 
D|-------------------------------------0--0--0----| 
A|-0--0--0--0--0--0--0--0--0--0--0--0--0--0--0----| 
D|-0--0--0--0--0--0--0--0--0--0--0--0--0--0--0----| 



VERSE II: 
            * 
E|----------------------------------0-------------| 
B|----------------------------------0--------0----| 
G|----------11-11----x--x--3--3--x--3--x--3--3----| 
D|-0--------x--x-----x--x--3--3--x--3--x--3--3----| 
A|-0--------9--9-----x--x-------------------------| 
D|-0----------------------------------------------| 
+ 
         *  * 
E|----------------------------0--------------0----| 
B|----------------------------0-----0--------x----| 
G|-------11-11-11----x--x--3--3--x--3--x--2--2----| 
D|-0-----x--x--x-----x--x--3--3--x--3--x--2--2----| 
A|-0-----9--9--9-----x--x-------------------------| 
D|-0----------------------------------------------| 
+ 
            * 
E|----------------------------------0--------0----| 
B|----------------------------0-----0--------0----| 
G|----------11-11----x--x--3--3--x--3--x--3--3----| 
D|-0--------x--x-----x--x--3--3--x--3--x--3--3----| 
A|-0--------9--9-----x--x-------------------------| 
D|-0----------------------------------------------| 
+ 
         *  * 
E|----------------------------0--------------0----| 
B|----------------------------0-----0--------x----| 
G|-------11-11-11----x--x--3--3--x--3--x--2--2----| 
D|-0-----x--x--x-----x--x--3--3--x--3--x--2--2----| 
A|-0-----9--9--9-----x--x-------------------------| 
D|-0----------------------------------------------| 
+ 
E|------------------------------------------------| 
B|------------------------------------------------| 
G|-0-----------------------------------------7----| 
D|-0----------------------------------------------| 
A|-0--------------------------------9--9-\7-------| 
D|-0----------------------------------------------| 
+ 
E|------------------------------------------------|| 
B|------------------------------------------------|| 
G|-------------------------------------------7----|| x 6 
D|------------(7~)--------------------------------|| 
A|-------------x-----------------------9-\7-----7-|| 
D|-0----------<7>~--------------------------------|| 
+                                       
                                       FB 
E|------------------------------------------------| 
B|------------------------------------------------| 
G|-------------------------------------#----------| 
D|-------------------------------------#----------| 
A|-------------------------------------#----------| 
D|-0----------<7>~---------------------#----------| 



VERSE III: 
            * 
E|---------------------------(0)---(0)------(0)---|| 
B|---------------------------(0)---(0)------(0)---|| 
G|----------11-11----x--x--3~-3~-x--3~-x--3~-3~---|| x 4 
D|-0--------x--x-----x--x--3~-3~-x--3~-x--3~-3~---|| 
A|-0--------9--9-----x--x-------------------------|| 
D|-0----------------------------------------------|| 
+ 
E|------------(0)(0)------------------------------|| 
B|-------------2-p0-------------------------------|| 
G|------------(2)(0)----------2-p0--------0-------|| x 4 
D|-0--------------------------------0--4b----4-p0-|| 
A|-0----------------------------------------------|| 
D|-0-----------------------3b---------------------|| 
+ 
E|------------------------------------------------| 
B|------------------------------------------------| 
G|-0-----------------------------------------7----| 
D|-0----------------------------------------------| 
A|-0--------------------------------9--9-\7-----7-| 
D|-0----------------------------------------------| 
+ 
E|------------------------------------------------|| 
B|------------------------------------------------|| 
G|-------------------------------------------7----|| x 7 
D|------------(7)~--------------------------------|| 
A|-------------x-----------------------9-\7-----7-|| 
D|-0----------<7>~--------------------------------|| 
+                                       
E|------------------------------------------------| 
B|------------------------------------------------| 
G|------------------------------------------------| 
D|---------------~--------------------------------| 
A|---------------~--------------------------------| 
D|-0----------<7>~--------------------------------|  
		  

Full key step upFull key step up
Half key step upHalf key step up
Half key step downHalf key step down
Full key step downFull key step down
hide glossary

See also:

tabs Guns N' Roses - Since I Don't Have You tabs The Offspring - The Kids Aren't Alright tabs Foo Fighters - Everlong Acoustic tabs Simon & Garfunkel - Sounds of silence tabs The Doors - Roadhouse Blues tabs The Doors - People Are Strange
e-chords

Other versions:

tabs Unwound - Usual Dosage
auto scroll beats size up size down change color hide chords drawings
tab show chords e-chords YouTube Clip e-chords hide all tabs e-chords go to top tab

share