Unwound

Treachery

Unwound

tabs

by  JESSGOMES

save to print version add songbook text version e-mail correct tuner
chordsukulelecavacokeyboardtabbassdrumsharmonicaflute Guitar Pro
close

there isn't a video lesson for this song

chords

Treachery

	  		

Intro: 
e|---------| 
a|---------| 
G|---------| 
D|---------| 
A|----0--1-| 
E|-3-------| 



Verse: 
e|------------------------------------| 
a|----0--------0--------0-------------| 
G|-------0--------0--------0----------| 
D|-0----------------------------------| 
A|----------1--------0-----------0--1-| 
E|----------------------------3-------| 
+ 
e|------------------------------------| 
a|----0--------0--------0-------------| 
G|-------0--------0--------0----------| 
D|-0----------------------------------| 
A|----------1--------0-----------0--1-| 
E|----------------------------3-------| 



Chorus I: 
e|------------------------------------|| 
a|------------------------------------|| 
G|------------------------------------|| x 4 
D|----1--#--------------1--#----------|| 
A|-#-----x--0--------#-----x--0-------|| 
E|------------------------------------|| 
+ 
e|------------------------------------| 
a|------------------------------------| 
G|----3-----3~----------2-----2p0-----| 
D|-------------------------------2p0--| 
A|/5-----5----------/4-----4--------2p| 
E|------------------------------------| 
+ 
e|------------------------------------| 
a|------------------------------------| 
G|------------------------------------| 
D|----1--#--------------1--#----------| 
A|0#-----x--0--------#-----x--0-------| 
E|------------------------------------| 
+ 
e|------------------------------------| 
a|------------------------------------| 
G|------------------------------------| 
D|----1--#--------------1--#----------| 
A|-#-----x--0--------#-----x--0-------| 
E|------------------------------------| 
+ 
e|------------------------------------| 
a|------------------------------------| 
G|----3-----3~----------2-----2-------| 
D|-------------------------------2p0--| 
A|/5-----5----------/4-----4--------2-| 
E|------------------------------------| 
+ 
e|------------------------------------|| 
a|------------------------------------|| 
G|------------------------------------|| x 2 
D|----1--#--------------1--#----------|| 
A|-#-----x--------0--#-----x--------0-|| 
E|----------0~-#--------------0~-#----|| 
+ 
e|------------------------------------| 
a|------------------------------------| 
G|----3-----3~----------2-----2p0-----| 
D|-------------------------------2p0--| 
A|/5-----5----------/4-----4--------2-| 
E|------------------------------------| 
+ 
e|------------------------------------| 
a|------------------------------------| 
G|------------------------------------| 
D|----1--#--------------1--#----------| 
A|-#-----x--------0--#-----x--------0-| 
E|-#--------0-h2~----#--------0-h2~---| 
+ 
e|------------------------------------| 
a|------------------------------------| 
G|----3-----3~----------2-----2-p0----| 
D|----------------------------------3-| 
A|/5-----5----------/4-----4----------| 
E|------------------------------------| 



Chorus II: 
e|------------------------------------|| 
a|------------------------------------|| 
G|------------------------------------|| x 4 
D|----1--#--------------1--#----------|| 
A|-#-----x--0--------#-----x--0-------|| 
E|------------------------------------|| 
+ 
e|------------------------------------| 
a|------------------------------------| 
G|----3-----3~----------2-----2p0-----| 
D|-------------------------------2p0--| 
A|/5-----5----------/4-----4--------2p| 
E|------------------------------------| 
+ 
e|------------------------------------| 
a|------------------------------------| 
G|------------------------------------| 
D|----1--#--------------1--#----------| 
A|0#-----x--0--------#-----x--0-------| 
E|------------------------------------| 
+ 
e|------------------------------------| 
a|------------------------------------| 
G|------------------------------------| 
D|----1--#--------------1--#----------| 
A|-#-----x--0--------#-----x--0-------| 
E|------------------------------------| 
+ 
e|------------------------------------| 
a|------------------------------------| 
G|----3-----3~----------2-----2p0-----| 
D|-------------------------------2p0--| 
A|/5-----5----------/4-----4--------2p| 
E|------------------------------------| 
+ 
e|------------------------------------| 
a|------------------------------------| 
G|------------------------------------| 
D|----1--#--------------1--#----------| 
A|0#-----x--------0--#-----x--------0-| 
E|-#--------0-h2~----#--------0-h2~---| 
+ 
e|------------------------------------| 
a|------------------------------------| 
G|------------------------------------| 
D|----1--#--------------1--#----------| 
A|-#-----x--------0--#-----x--------0-| 
E|-#--------0-h2~----#--------0-h2~---| 
+ 
e|------------------------------------| 
a|------------------------------------| 
G|----3-----3~----------2-----2p0-----| 
D|-------------------------------2p0--| 
A|/5-----5----------/4-----4--------2p| 
E|------------------------------------| 
+ 
e|------------------------------------| 
a|------------------------------------| 
G|------------------------------------| 
D|----1--#--------------1--#----------| 
A|0#-----x--------0--#-----x--------0-| 
E|-#--------0-h2~----#--------0-h2~---| 
+ 
e|------------------------------------|| 
a|------------------------------------|| 
G|----3-----3~----------2-----2-p0----|| x 4 
D|----------------------------------3-|| 
A|/5-----5----------/4-----4----------|| 
E|------------------------------------|| 



Bridge: 
e|------------------------------------| 
a|---------(0)---------------(0)------| 
G|----------0-----------------0-------| 
D|------------------------------------| 
A|-1-----------------3----------------| 
E|------------------------------------| 
+ 
e|------------------------------------| 
a|----------3--------1----------------| 
G|------------------------------------| 
D|----------------------------0--3-p0-| 
A|------------------------------------| 
E|-3----------------------------------| 



Outro: 
e|------------------------------------| 
a|------------------------------------| 
G|-3-p0-----3-p0-----3-p0-----3-p0----| 
D|------------------------------------| 
A|-------1--------1--------1--------1-| 
E|------------------------------------| 
+ 
e|------------------------------------| 
a|------------------------------------| 
G|-2-p0-----2-p0-----2-p0-----2-p0----| 
D|------------------------------------| 
A|-------4--------4--------4--------4-| 
E|------------------------------------| 
+ 
e|------------------------------------| 
a|------------------------------------| 
G|-3-p0-----3-p0-----3-p0-----3-p0----| 
D|------------------------------------| 
A|-------3--------3--------3--------3-| 
E|------------------------------------| 
+ 
e|------------------------------------| 
a|------------------------------------| 
G|-0--0--0--0--0--0--0--0--0--0--0--0-| 
D|-x--x--x--x--x--x--x--x--x--x--x--x-| 
A|-3--3--3--3--3--3--4--4--4--4--4--4-| 
E|-3--3--3--3--3--3--3--3--3--3--3--3-| 
+ 
e|------------------------------------| 
a|------------------------------------| 
G|-0--#-------------------------------| 
D|-x--#-------------------------------| 
A|-4--#-------------------------------| 
E|-3--#-------------------------------| 



Song Structure: 

Starts with keyboard/synthesizer riff until 0:21 
Intro x 1 
Verse x 4 
Chorus I x 1 
Verse x 4 
Chorus II x 1 
Bridge x 8 
Outro x 1 
Fades out with tape echo loop  
		  

See also:

tabs Foo Fighters - Everlong Acoustic tabs John Mayer - Daughters tabs Guns N' Roses - Since I Don't Have You tabs Jack Johnson - If I Could tabs Hateen - 1997 tabs Guns N' Roses - Knockin' On Heaven's Door
e-chords

Other versions:

tabs Unwound - Treachery
auto scroll beats size up size down change color hide chords drawings
tab show chords e-chords YouTube Clip e-chords hide all tabs e-chords go to top tab

share