Unwound

Pure Pain Sugar

Unwound

tabs

by  TERR_SCHMITZ

save to print version add songbook text version e-mail correct tuner
chordsukulelecavacokeyboardtabbassdrumsharmonicaflute Guitar Pro
close

there isn't a video lesson for this song

chords

Pure Pain Sugar

	  		

Guitar 
Intro N.C.: 
 * volume swell after striking chord 
E|-0----------------------------------------------| 
B|-0----------------------------------------------| 
G|-4----------------------------------------------| 
D|-0----------------------------------------------| 
A|------------------------------------------------| 
D|------------------------------------------------| 



Verse: 
E|-0--0--0--0--0--0--0--0-------------------------| 
B|-4--0--0--0--4--0--0--0-------------------------| 
G|-------4--0--------4--0-------------------------| x 3 
D|-------------------------2--2--2--2--2--2--2--0-| 
A|-------------------------2--2--2--2--2--2--2--0-| 
D|-------------------------2--2--2--2--2--2--2--0-| 
+ 
E|-0--0--0--0--0--0--0--0-------------------------| 
B|-4--0--0--0--4--0--0--0-------------------------| 
G|-------4--0--------4--0-------------------------| 
D|-------------------------2--2--2--2--2--2--0--2-| 
A|-------------------------2--2--2--2--2--2--0--2-| 
D|-------------------------2--2--2--2--2--2--0--2-| 
+ 
E|------------------------------------------------| 
B|------------------------------------------------| 
G|------------------------------------------------| 
D|-------------------0--2--------------------0--2~| 
A|-------------------0--2--------------------0--2~| 
D|-------------------0--2--------------------0--2~| 
+ 
E|------------------------------------------------| 
B|------------------------------------------------| 
G|------------------------------------------------| 
D|-------------------0--2~-------------------0--0-| 
A|-------------------0--2~-------------------0--0-| 
D|-------------------0--2~-------------------0--0-| 



Chorus I: 
E|------------------------------------------------| 
B|------------------------------------------------| 
G|------------------------------------------------| 
D|-5--5--5--5--5--5--5--5--5--5--5--5--5--5--5--5-| 
A|-5--5--5--5--5--5--5--5--5--5--5--5--5--5--5--5-| 
D|-5--5--5--5--5--5--5--5--5--5--5--5--5--5--5--5-| 
+ 
E|------------------------------------------------| 
B|------------------------------------------------| 
G|------------------------------------------------| 
D|-5--5--5--5--5--5--5--5--5--5--5--5--5--5--0--2-| 
A|-5--5--5--5--5--5--5--5--5--5--5--5--5--5--0--2-| 
D|-5--5--5--5--5--5--5--5--5--5--5--5--5--5--0--2-| 
+ 
E|------------------------------------------------| 
B|------------------------------------------------| 
G|------------/11-11------------------/11-11------| 
D|-------2-----x--x--0--2--------2-----x--x--0--2-| 
A|-------2----/9--9--0--2--------2----/9--9--0--2-| 
D|-------2-----------0--2--------2-----------0--2-| 
+ 
E|------------------------------------------------| 
B|------------------------------------------------| 
G|------------/11-11------------------/11-11-11---| 
D|-------2-----x--x--0--2--------2-----x--x--x----| 
A|-------2----/9--9--0--2--------2----/9--9--9----| 
D|-------2-----------0--2--------2----------------| 
+ 
E|------------------------------------------------| 
B|------------------------------------------------| 
G|-7--7--7--7--7--7--7--7--7--7--7--7--7--7--7--7-| 
D|-x--x--x--x--x--x--x--x--x--x--x--x--x--x--x--x-| 
A|-5--5--5--5--5--5--5--5--5--5--5--5--5--5--5--5-| 
D|------------------------------------------------| 
+ 
E|------------------------------------------------| 
B|------------------------------------------------| 
G|-7--7--7--7--7--7--7--7--7--7--7--7--7--7-------| 
D|-x--x--x--x--x--x--x--x--x--x--x--x--x--x--0--2-| 
A|-5--5--5--5--5--5--5--5--5--5--5--5--5--5--0--2-| 
D|-------------------------------------------0--2-| 
+            *harmonic run           *harmonic run 
E|------------------------------------------------| 
B|------------------------------------------------| 
G|------------------------------------------------| 
D|-------2-----------0--2--------2-----------0--2-| 
A|-------2----<9\ 5>-0--2--------2----<9\ 5>-0--2-| 
D|-------2-----------0--2--------2-----------0--2-| 
+ 
E|------------------------------------------------| 
B|------------------------------------------------| 
G|------------------------------------------------| 
D|-------2-----------0--2--------2----------------| 
A|-------2----/12-12-0--2--------2----/12-12-12---| 
D|-------2-----------0--2--------2----------------| 



Chorus II: 
E|------------------------------------------------| 
B|------------------------------------------------| 
G|------------------------------------------------| 
D|-5--5--5--5--5--5--5--5--5--5--5--5--5--5--5--5-| 
A|-5--5--5--5--5--5--5--5--5--5--5--5--5--5--5--5-| 
D|-5--5--5--5--5--5--5--5--5--5--5--5--5--5--5--5-| 
+ 
E|------------------------------------------------| 
B|------------------------------------------------| 
G|------------------------------------------------| 
D|-5--5--5--5--5--5--5--5--5--5--5--5--5--5--0--2-| 
A|-5--5--5--5--5--5--5--5--5--5--5--5--5--5--0--2-| 
D|-5--5--5--5--5--5--5--5--5--5--5--5--5--5--0--2-| 
+ 
E|------------------------------------------------| 
B|------------------------------------------------| 
G|------------/11-11------------------/11-11------| 
D|-------2-----x--x--0--2--------2-----x--x--0--2-| 
A|-------2----/9--9--0--2--------2----/9--9--0--2-| 
D|-------2-----------0--2--------2-----------0--2-| 
+ 
E|------------------------------------------------| 
B|------------------------------------------------| 
G|------------/11-11------------------/11-11-11---| 
D|-------2-----x--x--0--2--------2-----x--x--x----| 
A|-------2----/9--9--0--2--------2----/9--9--9----| 
D|-------2-----------0--2--------2----------------| 
+ 
E|------------------------------------------------| 
B|------------------------------------------------| 
G|-14-14-14-14-14-14-14-14-14-14-14-14-14-14-14-14| 
D|-x--x--x--x--x--x--x--x--x--x--x--x--x--x--x--x-| 
A|-12-12-12-12-12-12-12-12-12-12-12-12-12-12-12-12| 
D|------------------------------------------------| 
+ 
E|------------------------------------------------| 
B|------------------------------------------------| 
G|-14-14-14-14-14-14-14-14-14-14-14-14-14-14------| 
D|-x--x--x--x--x--x--x--x--x--x--x--x--x--x--0--2-| 
A|-12-12-12-12-12-12-12-12-12-12-12-12-12-12-0--2-| 
D|-------------------------------------------0--2-| 
+            *harmonic run 
E|------------------------------------------------| 
B|------------------------------------------------| 
G|------/7--7--7--7-------------/7--7--7--7-------| 
D|-------x--x--x--x--0--2--------x--x--x--x--0--2-| 
A|------/5--5--5--5--0--2-------/5--5--5--5--0--2-| 
D|-------------------0--2--------------------0--2-| 
+ 
E|------------------------------------------------| 
B|------------------------------------------------| 
G|------/7--7--7--7-------------/7--7--7--7--7----| 
D|-------x--x--x--x--0--2--------x--x--x--x--x----| 
A|------/5--5--5--5--0--2-------/5--5--5--5--5----| 
D|-------------------0--2-------------------------| 
+ 
E|------------------------------------------------| 
B|------------------------------------------------| 
G|------------------------------------------------| 
D|-0--2-------------------------------------------| 
A|-0--2-------------------------------------------| 
D|-0--2-------------------------------------------| 



Song Structure: 
Intro 
Verse x 3 
Chorus I 
Verse 
Chorus II  
		  

See also:

tabs Guns N' Roses - Since I Don't Have You tabs The Offspring - The Kids Aren't Alright tabs Foo Fighters - Everlong Acoustic tabs Simon & Garfunkel - Sounds of silence tabs The Doors - Roadhouse Blues tabs The Doors - People Are Strange
e-chords

Other versions:

tabs Unwound - Pure Pain Sugar
auto scroll beats size up size down change color hide chords drawings
tab show chords e-chords YouTube Clip e-chords hide all tabs e-chords go to top tab

share