Unwound

All Souls Days

Unwound

tabs

by  JOAOEWERTON

save to print version add songbook text version e-mail correct tuner
chordsukulelecavacokeyboardtabbassdrumsharmonicaflute Guitar Pro
close

there isn't a video lesson for this song

chords

All Souls Days

	  		

Intro: 
e|-0----------------------------------------------| 
B|-0-----------------------0----------------------| 
G|-5-----------------------4----------------------| 
D|-x----------------------------------------------| 
A|-0----------------------------------------------| 
E|------------------------------------------------| 
+ 
e|----------------------------------0-------------| 
B|-3-----5--------3-----------3-------------------| 
G|-5-----------------5--0--------0----------------| 
D|-------------------------4----------------------| 
A|------------------------------------------------| 
E|------------------------------------------------| 



Breakdown: 
e|------------------------------------------------| 
B|------------------------------------------------| 
G|-2-0-0-2-0-0-2-0-0-2-0-0-2-0-0-2-0-0-2-0-0-2-0-0| 
D|-2-0-0-2-0-0-2-0-0-2-0-0-2-0-0-2-0-0-2-0-0-2-0-0| 
A|-0-x-x-0-x-x-0-x-x-0-x-x-0-x-x-0-x-x-0-x-x-0-x-x| 
E|---3-3---3-3---3-3---3-3---3-3---3-3---3-3---3-3| 



Interlude: 
e|------------------------------------------------| 
B|------------------------------------------------| 
G|-8--8--x--8--8--x--8--8--x--8--8--x--8--8--x--8-| 
D|-7--7--x--7--7--x--7--7--x--7--7--x--7--7--x--7-| 
A|-0--0--x--0--0--x--0--0--x--0--0--x--0--0--x--0-| 
E|------------------------------------------------| 
+ 
e|------------------------------------------------| 
B|------------------------------------------------| 
G|-8--x--8--8--x--8--8--x--8--8--x--8--8--x--8--8-| 
D|-7--x--7--7--x--7--7--x--7--7--x--7--7--x--7--7-| 
A|-0--x--0--0--x--0--0--x--0--0--x--0--0--x--0--0-| 
E|------------------------------------------------| 
+ 
e|------------------------------------------------| 
B|------------------------------------------------| 
G|-x--8--8--x--8--8--x--8--8--x--8--8--x--8--8--x-| 
D|-x--7--7--x--7--7--x--7--7--x--7--7--x--7--7--x-| 
A|-x--0--0--x--0--0--x--0--0--x--0--0--x--0--0--x-| 
E|------------------------------------------------| 
+ 
e|------------------------------------------------| 
B|------------------------------------------------| 
G|-8--8--x--8--8--x--8--8--x--8--8--8-----8--8--8-| 
D|-7--7--x--7--7--x--7--7--x--7--7--7-----7--7--7-| 
A|-0--0--x--0--0--x--0--0--x--0--0--0-----0--0--0-| 
E|------------------------------------------------| 



Verse: 
e|-------------0----------------------------------| 
B|-------------0--------------------0-------------| 
G|-2-----------2-----------2-----2--2-----2--2----| 
D|-2-----------2----(2)----2-----2--2-----2--2----| 
A|-0----------------(0)----0-----0--0-----0--0----| 
E|------------------------------------------------| 
+ 
e|------------------------------------------------| 
B|-------------0----------------------------(0)---| 
G|-0-----------0-----0--0-----4--4--4--4--2br0----| 
D|-x-----------x-----x--x-------------------(0)---| 
A|-3-----3--3--3-----3-/5-------------------------| 
E|------------------------------------------------| 



Chorus: 
e|------------------------------------------------| 
B|------------------------------------------------| 
G|----------------------------7--7--7--7\-5--5----| 
D|-------9--9--9--7--7--9-----9--9--9--9\-7--7----| 
A|-------x--x--x--x--x--x-------------------------| 
E|/8-----8--8--8--8--8--8-------------------------| 
+ 
e|------------------------------------------------| 
B|------------------------------------------------| 
G|-0-----------0----------------------------------| 
D|-3-----------3--------3--3-/5--5--5--5-/7--7----| 
A|-3-----------3--------3--3-/5--5--5--5-/7--7----| 
E|-1-----------1--------1--1-/3--3--3--3-/5--5----| 
+ 
e|------------------------------------------------| 
B|------------------------------------------------| 
G|----------------------------7--7--7--7\-5--5----| 
D|-------9--9--9--7--7--9-----9--9--9--9\-7--7----| 
A|-------x--x--x--x--x--x-------------------------| 
E|/8-----8--8--8--8--8--8-------------------------| 
+ 
e|------------------------------------------------| 
B|------------------------------------------------| 
G|-0-----------0----------------------------------| 
D|-3-----------3--------x/------------------------| 
A|-3-----------3--------x/------------------------| 
E|-1-----------1----------------------------------| 


Extended Interlude Solo: 
 * play the first G chord from the Chorus and proceed  
   to make improvised noise, pick scrapes, and feedback  
   between the rests. 
e|------------------------------------------------| 
B|------------------------------------------------| 
G|-17-17-17-17-------------------------------16-16| 
D|----------------17-17----16-16----15-15---------| 
A|------------------------------------------------| 
E|------------------------------------------------| 
+ 
e|------------------------------------------------| 
B|------------------------------------------------| 
G|----17-17-17-------------------------------16-16| 
D|----------------17-17----16-16----15-15---------| 
A|------------------------------------------------| 
E|------------------------------------------------| 
+ 
e|------------------------------------------------| 
B|------------------------------------------------| 
G|----17-17-17-------------------------------15-15| 
D|----------------17-17----16-16----15-15---------| 
A|------------------------------------------------| 
E|------------------------------------------------| 
+ 
e|------------------------------------------------| 
B|------------------------------------------------| 
G|-16-16/17-17----17-17----17-17----17-17---------| 
D|-------------------------16-16----15-15----17-17| 
A|------------------------------------------------| 
E|------------------------------------------------| 
+ 
e|------------------------------------------------| 
B|------------------------------------------------| 
G|------------------------------------------------| 
D|-15-15\14-14-14-14-14-14-14-14-14-14-14\13-13-13| 
A|------------------------------------------------| 
E|------------------------------------------------| 
+ 
e|------------------------------------------------|| 
B|------------(15)-----(15)-----------------------|| 
G|------------(x)------(x)------------------------|| x 4 
D|-13-13-13-13-13-13-13-13-13-13-13-13-13-13-13-13|| 
A|------------------------------------------------|| 
E|------------------------------------------------||  
		  

Full key step upFull key step up
Half key step upHalf key step up
Half key step downHalf key step down
Full key step downFull key step down
hide glossary

See also:

tabs Guns N' Roses - Since I Don't Have You tabs The Offspring - The Kids Aren't Alright tabs Foo Fighters - Everlong Acoustic tabs Simon & Garfunkel - Sounds of silence tabs The Doors - Roadhouse Blues tabs The Doors - People Are Strange
e-chords

Other versions:

tabs Unwound - All Souls Days
auto scroll beats size up size down change color hide chords drawings
tab show chords e-chords YouTube Clip e-chords hide all tabs e-chords go to top tab

share