Unknown

Unknown Tab

Unknown

Difficulty: nolevelnolevel

by pstone

tuner correct add songbook print version text version save to e-mail
chordsukuleleukulelecavacokeyboardtabbassdrumsharmonicsflute Guitar Pro
close

there isn't a video lesson for this song

request
chords

Unknown

  		Electric Guitar 
 
 
e|------------------------------------------------------------------------------------------------------------------------ 
B|---------------------------------------------5--8----------------------------------------------------------------------- 
G|---------------------------------------5--7--------6--5--4-------------------------------------------------------------- 
D|--7b--5--7b--5-----7b--5--7b--5-----7------------------------5-3p0--0--3-3p0--0----------------------------------------- 
A|------------------------------------------------------------------------------------------------------------------------ 
E|------------------------------------------------------------------------------------------------------------------------ 
 
e|------------------------------------------------------------------------------------------------------------------------ 
B|---------------------------------------------10b--12-------------------------------------------------------------------- 
G|---------------------------------------5--7--------6--5--4-------------------------------------------------------------- 
D|--7b--5--7b--5-----7b--5--7b--5-----7------------------------5-3p0--0--3-3p0--0----------------------------------------- 
A|------------------------------------------------------------------------------------------------------------------------ 
E|------------------------------------------------------------------------------------------------------------------------ 
 
e|---------------------------12--------------------12--------12-15-12-15-12-15-12----------------------------------------- 
B|--2/15------15b--12~--15b--12-----15b--12~--15b--12----15------------------------15-12---------------------------------- 
G|----------------------------------------------------------------------------------------15b--12b-----12--15--15--15--12- 
D|------------------------------------------------------------------------------------------------------------------------ 
A|------------------------------------------------------------------------------------------------------------------------ 
E|------------------------------------------------------------------------------------------------------------------------ 
 
e|------------------------------------------------------------------------------------------------------------------------ 
B|------------------------------------------------------------------------------------------------------------------------ 
G|------------------------------------------------------------------------------------------------------------------------ 
D|------------------------------------------------------------------------------------------------------------------------ 
A|--9b3----7b3----5b3----3p0----0-------5--5--2--------------------------------------------------------------------------- 
E|-----------------------------------0--3--3--0--------------------------------------------------------------------------- 

	  

Search Paypal
auto scroll beats size up size down change color hide chords drawings
tab show chords e-chords YouTube Clip e-chords hide all tabs e-chords go to top tab

share with facebook