Unearth

Last Wish

Unearth

tabs

by  BRUNBLAZKOWSKI

save to print version add songbook text version e-mail correct tuner
chordsukulelecavacokeyboardtabbassdrumsharmonicaflute Guitar Pro
close

there isn't a video lesson for this song

chords

Last Wish

	  		

 




Intro 
Guitar 1: 
E||--0~-------0~--------0~------0~---------0~--|--0~-------0~--------0~------0~---------0~--| 
B||------6~-\-3~------------6~---------6~------|------6~-\-3~------------6~---------6~------| 
G||--------------------------------5~----------|--------------------------------5~----------| 
D||--------------------------------------------|--------------------------------------------| 
A||--------------------------------------------|--------------------------------------------| 
E||--------------------------------------------|--------------------------------------------| 
B||--------------------------------------------|--------------------------------------------| 


Guitar 2: 
E||--------------------------------------------|--------------------------------------------| 
B||--------------------------------------------|--------------------------------------------| 
G||--------------------------------------------|--------------------------------------------| 
D||--------------------------------------------|--------------------------------------------| 
A||--------------------------------------------|--------------------------------------------| 
E||--------------------------------------------|------------------------------------13\\----| 
B||--------------------------------------------|------------------------------------13\\----| 



Guitar 1: 
E||--0~-------0~--------0~------0~---------0~--|--0~-------0~--------0~------0~---------0~--| 
B||------6~-\-3~------------6~---------6~------|------6~-\-3~------------6~---------6~------| 
G||--------------------------------5~----------|--------------------------------5~----------| 
D||--------------------------------------------|--------------------------------------------| 
A||--------------------------------------------|--------------------------------------------| 
E||--------------------------------------------|--------------------------------------------| 
B||--------------------------------------------|--------------------------------------------| 



E||--0~-------0~--------0~------0~---------0~--|--0~-------0~--------0~------0~----0~----0~--| 
B||------6~-\-3~------------6~---------6~------|------6~-\-3~------------6~-----6~----6~-----| 
G||--------------------------------5~----------|---------------------------------------------| 
D||--------------------------------------------|---------------------------------------------| 
A||--------------------------------------------|---------------------------------------------| 
E||--------------------------------------------|---------------------------------------------| 
B||--------------------------------------------|---------------------------------------------| 


Guitar 2: 
E||--------------------------------------------|---------------------------------------------| 
B||--------------------------------------------|---------------------------------------------| 
G||--------------------------------------------|---------------------------------------------| 
D||--------------------------------------------|---------------------------------------------| 
A||--0~----------------------------3~----------|--8~-----------------7~---------10~----------| 
E||--0~----------------------------3~----------|--8~-----------------7~---------10~----------| 
B||--0~----------------------------3~----------|--8~-----------------7~---------10~----------| 


E||--------------------------------------------|---------------------------------------------| 
B||--------------------------------------------|---------------------------------------------| 
G||--------------------------------------------|---------------------------------------------| 
D||--------------------------------------------|---------------------------------------------| 
A||--0~----------------------------3~----------|--8~-----------------7~---------10-10-10-10--| 
E||--0~----------------------------3~----------|--8~-----------------7~---------10-10-10-10--| 
B||--0~----------------------------3~----------|--8~-----------------7~---------10-10-10-10--| 



Guitar 1: 
E||--0~-------0~--------0~------0~---------0~--|--0~-------0~--------0~------0~---------0~--| 
B||------6~-\-3~------------6~---------6~------|------6~-\-3~------------6~---------6~------| 
G||--------------------------------5~----------|--------------------------------5~----------| 
D||--------------------------------------------|--------------------------------------------| 
A||--------------------------------------------|--------------------------------------------| 
E||--------------------------------------------|--------------------------------------------| 
B||--------------------------------------------|--------------------------------------------| 



E||--0~-------0~--------0~------0~---------0~--|--0~-------0~--------0~------0~----0~----0~--| 
B||------6~-\-3~------------6~---------6~------|------6~-\-3~------------6~-----6~----6~-----| 
G||--------------------------------5~----------|---------------------------------------------| 
D||--------------------------------------------|---------------------------------------------| 
A||--------------------------------------------|---------------------------------------------| 
E||--------------------------------------------|---------------------------------------------| 
B||--------------------------------------------|---------------------------------------------| 


Guitar 2: 
E||--------------------------------------------|---------------------------------------------------| 
B||--------------------------------------------|---------------------------------------------------| 
G||--------------------------------------------|---------------------------------------------------| 
D||--------------------------------------------|---------------------------------------------------| 
A||--0~--0~--0-0~-000000--0~--0~--0-0~--0---0--|--0~--0~--0-0~-000000--0~--0~--0--0h3p0------------| 
E||--0~--0~--0-0~-000000--0~--0~--0-0~--0---0--|--0~--0~--0-0~-000000--0~--0~--0------------0h3h5--| 
B||--0~--0~--0-0~-000000--0~--0~--0-0~--0---0--|--0~--0~--0-0~-000000--0~--0~--0-------0h5h7-------| 
     .   .   . .  ......  .   .   . .   .   .     .   .   . .  ......  .   .   . 


E||--------------------------------------------|---------------------------------------------------| 
B||--------------------------------------------|---------------------------------------------------| 
G||--------------------------------------------|---------------------------------------------------| 
D||--------------------------------------------|---------------------------------------------------| 
A||--0~--0~--0-0~-000000--0~--0~--0-0~--0---0--|--0~--0~--0-0~-000000--0~--0~--0--0h3p0------------| 
E||--0~--0~--0-0~-000000--0~--0~--0-0~--0---0--|--0~--0~--0-0~-000000--0~--0~--0------------0h3h5--| 
B||--0~--0~--0-0~-000000--0~--0~--0-0~--0---0--|--0~--0~--0-0~-000000--0~--0~--0-------0h5h7-------| 
     .   .   . .  ......  .   .   . .   .   .     .   .   . .  ......  .   .   . 



Pre-Verse 
Guitar 1: 
E||--------------------------------------------------------------------------------| 
B||--------------------------------------------------------------------------------| 
G||---------------------------9---7-10-10-9-0-14-12-0-12-10-0-10-9-0-9h10p9--------| 
D||--------5---7---10-----7-----0-------------------------------------------10h12--| 
A||--0-0-0---0---0----0-0---0------------------------------------------------------| 
E||--------------------------------------------------------------------------------| 
B||--------------------------------------------------------------------------------| 
     . . .   .   .    . .   .   . 


E||------------------------------------------------------------------------------| 
B||------------------------------------------------------------------------------| 
G||---------------------------------------------------10-13---9-10-0-7h9p7-------| 
D||--------5---7---10------3-0-5h7p5-----3-6-0-9-12-0-------0--------------10-9--| 
A||--0-0-0---0---0----0-0------------8-7-----------------------------------------| 
E||------------------------------------------------------------------------------| 
B||------------------------------------------------------------------------------| 
     . . .   .   .    . .    .           . . . . .  . .  .  . . .  . 


Guitar 2: 
E||------------------------------------------------------------------| 
B||------------------------------------------------------------------| 
G||------------------------------------------------------------------| 
D||------------------------------------------------------------------| 
A||--0~---------------------------0~------------8~-------------------| 
E||--0~---------------------------0~------------8~------\\pick\\\\---| 
B||--0~---------------------------0~------------8~------\\\\slide\\--| 



Verse 
Guitar 1/2: 
E||--------------------------------------------------------------------------------| 
B||--------------------------------------------------------------------------------| 
G||---------------------------9---7-10-10-9-0-14-12-0-12-10-0-10-9-0-9h10p9--------| 
D||--------5---7---10-----7-----0-------------------------------------------10h12--| 
A||--0-0-0---0---0----0-0---0------------------------------------------------------| 
E||--------------------------------------------------------------------------------| 
B||--------------------------------------------------------------------------------| 
     . . .   .   .    . .   .   . 


E||------------------------------------------------------------------------------| 
B||------------------------------------------------------------------------------| 
G||---------------------------------------------------10-13---9-10-0-7h9p7-------| 
D||--------5---7---10------3-0-5h7p5-----3-6-0-9-12-0-------0--------------10-9--| 
A||--0-0-0---0---0----0-0------------8-7-----------------------------------------| 
E||------------------------------------------------------------------------------| 
B||------------------------------------------------------------------------------| 
     . . .   .   .    . .    .           . . . . .  . .  .  . . .  . 


Guitar 1: 
E||--------------------------------------------------------------------------------| 
B||--------------------------------------------------------------------------------| 
G||---------------------------9---7-10-10-9-0-14-12-0-12-10-0-10-9-0-9h10p9--------| 
D||--------5---7---10-----7-----0-------------------------------------------10h12--| 
A||--0-0-0---0---0----0-0---0------------------------------------------------------| 
E||--------------------------------------------------------------------------------| 
B||--------------------------------------------------------------------------------| 
     . . .   .   .    . .   .   . 


E||------------------------------------------------------------------------------| 
B||------------------------------------------------------------------------------| 
G||---------------------------------------------------10-13---9-10-0-7h9p7-------| 
D||--------5---7---10------3-0-5h7p5-----3-6-0-9-12-0-------0--------------10-9--| 
A||--0-0-0---0---0----0-0------------8-7-----------------------------------------| 
E||------------------------------------------------------------------------------| 
B||------------------------------------------------------------------------------| 
     . . .   .   .    . .    .           . . . . .  . .  .  . . .  . 



Guitar 2: 
E||------------------------------------------------------------3h5p3------| 
B||------------------------------------------------------------------5-6--| 
G||--------------------------5---4-7-7-5-0-10-9-0-7-9-0-7-5-0-------------| 
D||--------2---3---7-----3-----0------------------------------------------| 
A||--0-0-0---0---0---0-0---0----------------------------------------------| 
E||-----------------------------------------------------------------------| 
B||-----------------------------------------------------------------------| 
     . . .   .   .   . .   .   . 


E||------------------------------------------------------------------------| 
B||------------------------------------------------------------------------| 
G||------------------------------------------------7-10---5-7-0-4h5p4------| 
D||--------2---3---7-----3---2h3p2-----0-3-0-6-9-0------0-------------7-5--| 
A||--0-0-0---0---0---0-0---0-------5-3-------------------------------------| 
E||------------------------------------------------------------------------| 
B||------------------------------------------------------------------------| 
     . . .   .   .   . .   .           . . . . . . . .  . . . . 



Pre-Chorus 
Guitar 1: 
E||----------------------------------------------------------------------| 
B||----------------------------------------------------------------------| 
G||---9-----9---9---9-----9---10---7-9-7-9-0-5-7-0-4-5-0-5-7-0-7-9-9-10--| 
D||-----7-7---7---7---7-7---7----0---------------------------------------| x2 
A||----------------------------------------------------------------------| 
E||----------------------------------------------------------------------| 
B||----------------------------------------------------------------------| 
        . .   .   .   . .   .    . 


Guitar 2: 
E||----------------------------------------------------------------------------| 
B||----------------------------------------------------------------------------| 
G||----------------------------------------------------------------------------| 
D||----------------------------------------------------------------------------| 
A||----------------------------------------------------------------------------| 
E||--55555555-88888888--------------------55555555-88888888-8~-----10~---//\\--| 
B||--------------------55555555-6666-3333-------------------6~-----8~----//\\--| 



Chorus 
Guitar 1: 
E||----------------------------------------------------------------------| 
B||----------------------------------------------------------------------| 
G||---9-----9---9---9-----9---10---7-9-7-9-0-5-7-0-4-5-0-5-7-0-7-9-9-10--| 
D||-----7-7---7---7---7-7---7----0---------------------------------------| x4 
A||----------------------------------------------------------------------| 
E||----------------------------------------------------------------------| 
B||----------------------------------------------------------------------| 
        . .   .   .   . .   .    . 


Guitar 2: 
E||----------------------------------------------------------------------| 
B||----------------------------------------------------------------------| 
G||----------------------------------------------------------------------| 
D||--7~---------------10~------------------------------------------------| x3 
A||--7~---------------10~--------------8~----------------------7~--------| 
E||--5~---------------8~---------------8~----------------------7~--------| 
B||------------------------------------8~----------------------7~--------| 


E||----------------------------------------------------------------------| 
B||----------------------------------------------------------------------| 
G||----------------------------------------------------------------------| 
D||--7~------------------------------------------------------------------| 
A||--7~---------------0~---------------8~----------------------7~--------| 
E||--5~---------------0~---------------8~----------------------7~--------| 
B||-------------------0~---------------8~----------------------7~--------| 



Bridge 
Guitar 1: 
E||---------------------------------------------------------------------| 
B||---------------------------------------------------------------------| 
G||---------------------------------------------------------------------| 
D||---------------------------------------------------------------------| 
A||--5/7-7-7-------------------------5/7-7-7----------------------------| 
E||--3/5-5-5-------------------------3/5-5-5---------5h8p5---5-------4--| 
B||----------0-0-0-0-0-0-0-0-0-0-0-0---------0-0-0-0-------6---6-3-6----| 
             . . . . . . . . . . . .         . . . . 

E||-------------------------------------------------------------------| 
B||-------------------------------------------------------------------| 
G||-------------------------------------------------------------------| 
D||--------------------------------------------------2---2------------| 
A||--5/7-7-7-----------------------------2---2---------------3---3----| 
E||--3/5-5-5-------------------------------------3h5---1---1---0---0--| 
B||----------0-0-0-0-0-0-0-0-0-0-0-0-3-3---3---3----------------------| 
             . . . . . . . . . . . . . .   .   . 


Guitar 2: 
E||-------------------------------------------------------------------| 
B||-------------------------------------------------------------------| 
G||-------------------------------------------------------------------| 
D||-----------------------7~-------------------------2---2------------| 
A||--0~-------------------7~-------------2---2---------------3---3----| 
E||--0~-------------------5~---------------------3h5---1---1---0---0--| 
B||--0~------------------------------3-3---3---3----------------------| 
                                     . .   .   . 



Guitar 1/2: 
E||---------------------------------------------------------------------| 
B||---------------------------------------------------------------------| 
G||---------------------------------------------------------------------| 
D||---------------------------------------------------------------------| 
A||--5/7-7-7-------------------------5/7-7-7----------------------------| 
E||--3/5-5-5-------------------------3/5-5-5---------5h8p5---5-------4--| 
B||----------0-0-0-0-0-0-0-0-0-0-0-0---------0-0-0-0-------6---6-3-6----| 
             . . . . . . . . . . . .         . . . . 

E||-------------------------------------------------------------------| 
B||-------------------------------------------------------------------| 
G||-------------------------------------------------------------------| 
D||--------------------------------------------------2---2------------| x2 
A||--5/7-7-7-----------------------------2---2---------------3---3----| 
E||--3/5-5-5-------------------------------------3h5---1---1---0---0--| 
B||----------0-0-0-0-0-0-0-0-0-0-0-0-3-3---3---3----------------------| 
             . . . . . . . . . . . . . .   .   . 



Solo 
Guitar 1: 
E||-------------------------------------------------------------------| 
B||-------------------------------------------------------------------| 
G||-------------------------------------------------------------------| 
D||------------------------------------------9---------------9-10-12--| 
A||----------8---------------8-10-12-8-10-12---12-10-8-10-12----------| 
E||--8-10-12---12-10-8-10-12------------------------------------------| 
B||-------------------------------------------------------------------| 


E||--------------------------------------------------------------| 
B||----------------------------------10~----12~----13~--b----\\--| 
G||----------9---------------9-10-12-------------------------\\--| 
D||--9-10-12---12-10-9-10-12-------------------------------------| 
A||--------------------------------------------------------------| 
E||--------------------------------------------------------------| 
B||--------------------------------------------------------------| 


E||----------------------------------------------| 
B||--*17\--17\----------------17\--*17--*17~--\--| 
G||----------------------------------------------| 
D||-------------14\--7/--14\---------------------| 
A||----------------------------------------------| 
E||----------------------------------------------| 
B||----------------------------------------------| 


Guitar 2: 
E||-------------------------------------------------------| 
B||-------------------------------------------------------| 
G||----5---7---5---4-----5---7---5------------------------| 
D||----7---7---7---5-----7---7---7--------3~--------------| 
A||---------------------------------3-333-3~----------3~--| 
E||--0---0---0---0---0-0---0---0----1-111-1~----3-333-3~--| 
B||--0---0---0---0---0-0---0---0----------------3-333-3~--| 
     .   .   .   .   . .   .   .    . ...       . ... 


E||-------------------------------------------------------| 
B||-------------------------------------------------------| 
G||----5---7---5---4-----5---7---5------------------------| 
D||----7---7---7---5-----7---7---7--------3~----------5~--| 
A||---------------------------------3-333-3~----5-555-5~--| 
E||--0---0---0---0---0-0---0---0----1-111-1~----3-333-3~--| 
B||--0---0---0---0---0-0---0---0--------------------------| 
     .   .   .   .   . .   .   .    . ...       . ... 




Guitar 1: 
E||------------------------------------------------------------------------------| 
B||------------17----15----------------------------------------------------------| 
G||------17-------14----14-17-14-16-14----0-------------------------12-----------| 
D||--/14----14-------------------------17---14-12h14p12-------12-14----14-12-----| 
A||-----------------------------------------------------12-15----------------15--| 
E||------------------------------------------------------------------------------| 
B||------------------------------------------------------------------------------| 
                                          . 

Guitar 2 (Dub): 
E||------------15----13----12----------------------------------------------------| 
B||------13-------13----13----13-15-13-12----------------------------13----------| 
G||--/12----12----------------------------0-12-10h12p10-9----9-10-12----12-10-9--| 
D||-------------------------------------------------------10---------------------| 
A||------------------------------------------------------------------------------| 
E||------------------------------------------------------------------------------| 
B||------------------------------------------------------------------------------| 
                                          . 

Guitar 2: 
E||-------------------------------------------------------| 
B||-------------------------------------------------------| 
G||----5---7---5---4-----5---7---5------------------------| 
D||----7---7---7---5-----7---7---7--------3~--------------| 
A||---------------------------------3-333-3~----------3~--| 
E||--0---0---0---0---0-0---0---0----1-111-1~----3-333-3~--| 
B||--0---0---0---0---0-0---0---0----------------3-333-3~--| 
     .   .   .   .   . .   .   .    . ...       . ... 



Guitar 1: 
E||-------------------------------------------------------------------------12----------12--------| 
B||--15-------13----------------------------------------------------------12--12------12--12--12--| 
G||--------------------16----17-16-14-----------------------------------12------12--12------12----| 
D||-----12-15----15-12----12---------17-16-14-13----------------------14----------14--------------| 
A||---------------------------------------------15-14-12------------14----------------------------| 
E||------------------------------------------------------15-14-12-15------------------------------| 
B||-----------------------------------------------------------------------------------------------| 


E||--17-12--------------------12-17-12-----15b17r15-12-15~b~---17~--| 
B||-------13----------------13--------13----------------------------| 
G||---------14------------14------------14--------------------------| 
D||-----------14--------14------------------------------------------| 
A||-------------15-12-15--------------------------------------------| 
E||-----------------------------------------------------------------| 
B||-----------------------------------------------------------------| 


Guitar 2: 
E||-------------------------------------------------------------| 
B||-------------------------------------------------------------| 
G||----5---7---5---4-----5---7---5------------------------------| 
D||----7---7---7---5-----7---7---7------------------------------| 
A||-------------------------------------------------------------| 
E||--0---0---0---0---0-0---0---0----0---0---0---0--///pick////--| 
B||--0---0---0---0---0-0---0---0----0---0---0---0--////slide//--| 
     .   .   .   .   . .   .   .    .   .   .   . 




Chorus 
Guitar 1: 
E||----------------------------------------------------------------------| 
B||----------------------------------------------------------------------| 
G||---9-----9---9---9-----9---10---7-9-7-9-0-5-7-0-4-5-0-5-7-0-7-9-9-10--| 
D||-----7-7---7---7---7-7---7----0---------------------------------------| x3 
A||----------------------------------------------------------------------| 
E||----------------------------------------------------------------------| 
B||----------------------------------------------------------------------| 
        . .   .   .   . .   .    . 

Guitar 1: 
E||-------------------------------------| 
B||-------------------------------------| 
G||---9-----9---9---9-----9---10---7-9--| 
D||-----7-7---7---7---7-7---7----0------| 
A||-------------------------------------| 
E||-------------------------------------| 
B||-------------------------------------| 
        . .   .   .   . .   .    . 


Guitar 2: 
E||----------------------------------------------------------------------| 
B||----------------------------------------------------------------------| 
G||----------------------------------------------------------------------| 
D||--7~---------------10~------------------------------------------------| 
A||--7~---------------10~--------------8~----------------------7~--------| 
E||--5~---------------8~---------------8~----------------------7~--------| 
B||------------------------------------8~----------------------7~--------| 


E||---------------------------------------------------------| 
B||---------------------------------------------------------| 
G||---------------------------------------------------------| 
D||--7~---------------10~-----------------------------------| 
A||--7~---------------10~--------------8~-------------------| 
E||--5~---------------8~---------------8~------///pick////--| 
B||------------------------------------8~------////slide//--| 


E||-----------------------------------------------------------| 
B||-----------------------------------------------------------| 
G||-----------------------------------------------------------| 
D||-----------------------------------------------------------| 
A||-----------------------------------------------------------| 
E||--55555555-88888888-------------------55555555-88888888-8--| 
B||--------------------666666666666-5555-------------------8--| 
     ........ ........ ............ .... ........ ........ 


Guitar 1: 
E||------------------------------------| 
B||------------------------------------| 
G||--7-9-0-5-7-0-4-5-0-5-7-0-7-9-9-10--| 
D||------------------------------------| 
A||------------------------------------| 
E||------------------------------------| 
B||------------------------------------| 


Guitar 2 (Dub): 
E||-------------------------------------------| 
B||-------------------------------------------| 
G||--10-12-0-9-10-0-7-9-0-9-10-0-10-12-12-14--| 
D||-------------------------------------------| 
A||-------------------------------------------| 
E||-------------------------------------------| 
B||-------------------------------------------| 


Guitar 2: 
E||--------| 
B||--------| 
G||--------| 
D||--------| 
A||--------| 
E||--------| 
B||--//\\--| 



Outro 
Guitar 1/2: 
E||---------------------------------------------------------------------| 
B||---------------------------------------------------------------------| 
G||---------------------------------------------------------------------| 
D||---------------------------------------------------------------------| 
A||--5/7-7-7-------------------------5/7-7-7----------------------------| 
E||--3/5-5-5-------------------------3/5-5-5---------5h8p5---5-------4--| 
B||----------0-0-0-0-0-0-0-0-0-0-0-0---------0-0-0-0-------6---6-3-6----| 
             . . . . . . . . . . . .         . . . . 

E||---------------------------------------------------| 
B||---------------------------------------------------| 
G||---------------------------------------------------| 
D||---------------------------------------------------| 
A||--5/7-7-7-----------------------------2---2--------| 
E||--3/5-5-5-------------------------------------3h5--| 
B||----------0-0-0-0-0-0-0-0-0-0-0-0-3-3---3---3------| 
             . . . . . . . . . . . . . .   .   . 


Guitar 1: 
E||-------------------| 
B||-------------------| 
G||-------------------| 
D||--2---2------------| 
A||----------3---3----| 
E||----1---1---0---0--| 
B||-------------------| 


Guitar 2: 
E||---------------| 
B||---------------| 
G||---------------| 
D||---------------| 
A||---------------| 
E||--///pick////--| 
B||--////slide//--| 



Guitar 1: 
E||---------------------------------------------------------------------| 
B||---------------------------------------------------------------------| 
G||---------------------------------------------------------------------| 
D||---------------------------------------------------------------------| 
A||--5/7-7-7-------------------------5/7-7-7----------------------------| 
E||--3/5-5-5-------------------------3/5-5-5---------5h8p5---5-------4--| 
B||----------0-0-0-0-0-0-0-0-0-0-0-0---------0-0-0-0-------6---6-3-6----| 
             . . . . . . . . . . . .         . . . . 

E||-------------------------------------------------------------------| 
B||-------------------------------------------------------------------| 
G||-------------------------------------------------------------------| 
D||--------------------------------------------------2---2------------| 
A||--5/7-7-7-----------------------------2---2---------------3---3----| 
E||--3/5-5-5-------------------------------------3h5---1---1---0---0--| 
B||----------0-0-0-0-0-0-0-0-0-0-0-0-3-3---3---3----------------------| 
             . . . . . . . . . . . . . .   .   . 


Guitar 2: 
E||--------------------------------------------------------------------------| 
B||--------------------------------------------------------------------------| 
G||--------------------------------------------------------------------------| 
D||----------------------------------------------------------------7~-----\--| 
A||--0~--------------0~--------------0~----------------8~----7~----7~-----\--| 
E||--0~--------------0~--------------0~----------------8~----7~----5~-----\--| 
B||--0~--------------0~--------------0~----------------8~----7~--------------| 




Tablature Legend 
---------------- 
 h   hammer-on 
 p   pull-off 
 b   bend 
 pb  pre-bend 
 r   release bend 
 ~   hold / vibrato 
 .   palm mute 
 /   slide up 
 \   slide down 
 *   pinch harmonic 
 '   natural harmonic 
 x   mute note 
 T   tap 
		  

See also:

tabs Bon Jovi - It's My Life tabs Foo Fighters - Learn to Fly (acoustic version) tabs Jack Johnson - Good People tabs The Offspring - Pretty Fly (For a White Guy) tabs Guns N' Roses - Godfather Theme tabs Guns N' Roses - Nightrain
e-chords

Other versions:

tabs Unearth - Last Wish
auto scroll beats size up size down change color hide chords drawings
tab show chords e-chords YouTube Clip e-chords hide all tabs e-chords go to top tab

share