Underoath

Too Bright To See Too Loud To Hear

Underoath

tabs Beginner beginner

by  EDUCASTILHO

save to print version add songbook text version e-mail correct tuner
chordsukulelecavacokeyboardtabbassdrumsharmonicaflute Guitar Pro
close

there isn't a video lesson for this song

chords

Too Bright To See Too Loud To Hear

	  		0:00-0:41 
Guitarra 1 
E|------------------------------------------------------------| 
B|------------------------------------------------------------| 
G|------------------------------------------------------------| 
D|-----0~------------------------12--12--12--12-------0~------|   X2 
A|----3~----------5-5-5-5----------------------------3~-------| 
D|---1~----------5-5-5-5-------10--10--10--10-------1~--------| 


0:42-01:11 
Guitarra 2 
E|-----------------------|    E|-----------------------| 
B|------------6-----6----|    B|-----------------------| 
G|------7----7---7-------|    G|------------10-----10--| 
D|---5-8----8---8--------| OR D|------12---12--12------| 
A|-----------------------|    A|--10-13---13--13-------| 
D|-----------------------|    D|-----------------------| 

1:12-1:13 
E|-------------------------| 
B|-------------------------| 
G|---------5----7----------| 
D|---------7----9----------| 
A|-------------------------| 
D|-------------------------| 

1:13-1:46 
E|------0~---------------0~-------------0~-------0~----------| 
B|------0~---------------0~-------------0~-------0~----------| 
G|------0~---------------0~-------------0~-------0~----------| 
D|------0~---------------0~-------------0~-------0~----------| 
A|-----------------------------------------------------------| 
D|--1-1---------------5-5----------10-10--------1------1-----| 


1:46-2:18 
Guitarra 1 

E|-----------------------------------------------------------------------0~| 
B|-----------------------------------------------------------------------0~| 
G|-----------------------------------------------------------------------0~| 
D|-----1--------------------5--------------------10------------------1---0~| 
A|-----1--------------------5--------------------10------------------1-----| 
D|-----1--------------------5--------------------10------------------1-----| 

Guitarra 2 

E|-------------------| 
B|---3---2---0-------| 
G|--------------0----| 
D|-------------------|  X4  
A|-------------------| 
D|-------------------| 

2:18-3:06 
E|----------| 
B|----------| 
G|----------| 
D|----------| X 12 
A|----------| 
D|---1---3--| 

3:07-3:38 
E|---------| 
B|---------| 
G|---------| 
D|---------| 
A|---1~~~--| 
D|---1~~~--| 

3:38-4:10 
E|----------| 
B|----------| 
G|----------| 
D|---1--3---| X8 
A|---1--3---| 
D|---1--3---| 

4:10-4:18 
E|----------| 
B|----------| 
G|----------| 
D|----------| X2 
A|----------| 
D|---1--3---| 
		  

See also:

tabs Slipknot - Duality(ver 2) tabs Slipknot - Surfacing tabs Rainbow - Long Live Rock N' Roll tabs Dream Theater - As I Am tabs Pantera - Hollow tabs Slipknot - The Blister Exists
e-chords

Other versions:

tabs Underoath - Too Bright To See Too Loud To Hear
auto scroll beats size up size down change color hide chords drawings
tab show chords e-chords YouTube Clip e-chords hide all tabs e-chords go to top tab

share