Underoath

The Only Survivor Was Miraculously Unharmed

Underoath

tabs

by  EDUCASTILHO

save to print version add songbook text version e-mail correct tuner
chordsukulelecavacokeyboardtabbassdrumsharmonicaflute Guitar Pro
close

there isn't a video lesson for this song

chords

The Only Survivor Was Miraculously Unharmed

	  		E|-----------|        |------------|     |-----------|      |---| 
B|-----------|        |------------|     |-----------|      |-6-| 
G|-----------|   x6   |-999999-----| x1  |-----------|  x4  |-9-| 
D|-1-1-8-8-0-|        |-xxxxxx-----|     |-1-1-8-8-0-|      |---| 
A|-1-1-8-8-0-|        |-777777-----|     |-1-1-8-8-0-|      |---| 
D|-1-1-8-8-0-|        |--------8s0-|     |-1-1-8-8-0-|      |---| 

E|----------|     |---------------|     |--------------------------| 
B|----------|     |-------------6-|     |--------------------------| 
A|----------| x8  |-99999999999-9-|     |--------------------------| x4 
A|----------|     |-xxxxxxxxxxx---|     |-0-0-xx-0-0-xx-0-0-xx-0~--| 
A|----------|     |-77777777777---|     |-0-0-xx-0-0-xx-0-0-xx-0~--| 
D|-1-1-s8p0-|     |---------------|     |-0-0-xx-0-0-xx-0-0-xx-0~--| 

E|------------------|     |-------------------------------| 
B|------------------|     |-------------------------------| 
G|------------------|     |-------------------------------| x2 
D|-0~-3--5--0~-3--5-|     |-0000-0000-0000-0000-5555-3333-| 
A|-0~-3--5--0~-3--5-|     |-0000-0000-0000-0000-5555-3333-| 
D|-0~-3--5--0~-3--5-|     |-0000-0000-0000-0000-5555-3333-| 

E|------------------------------------| 
B|------------------------------------| 
G|------------------------------------| 
D|------------------------------------|  x2 
A|---5-3-8---------------5-3-8--------| 
D|-0-------8------3-5--0-------8--3-5-| 


E|-------------| 
B|-------------| 
G|-7--9--10-12-| 
d|-x--x--x--x--| 
A|-5--7--8--10-| 
D|-------------| 

E|------------------------------------| 
B|------------------------------------| 
G|------------------------------------| 
D|------------------------------------|  x2 
A|---5-3-8---------------5-3-8--------| 
D|-0-------8------3-5--0-------8--3-5-| 

E|-------------| 
B|-------------| 
G|-7--9--10-12-| 
D|-x--x--x--x--|  x4 
A|-5--7--8--10-| 
D|-------------| 
		  

See also:

tabs Pantera - Cemetary Gates tabs Twisted Syster - Were not gonna take tabs Marilyn Manson - Disposable Teens tabs Dream Theater - Endless Sacrifice tabs Manowar - Brothers Of Metal tabs Alice Cooper - Poison
e-chords

Other versions:

tabs Underoath - The Only Survivor Was Miraculously Unharmed
auto scroll beats size up size down change color hide chords drawings
tab show chords e-chords YouTube Clip e-chords hide all tabs e-chords go to top tab

share