Underoath

Heart of stone

Underoath

tabs

by  BLITZZKRIEG

save to print version add songbook text version e-mail correct tuner
chordsukulelecavacokeyboardtabbassdrumsharmonicaflute Guitar Pro
close

there isn't a video lesson for this song

chords

Heart of stone

	  		Heart of stone _ Underoath   
 
(MOST OF THE PARTS ARE BOTH...) 
E|-------------------------- 
B|-------------------------- 
G|-------------------------- 
D|--5--8--4--7--3--6--2--5-- 
A|--5--8--4--7--3--6--2--5-- 
D|--5--8--4--7--3--6--2--5--  2X 
 
E|---------------------------------- 
B|---------------------------------- 
G|---------------------------------- 
D|x--0?0?0?0?0----0?0?0?0----0?5?6-- 
A|x--0?0?0?0?0----0?0?0?0----0?5?6-- 
D|x--0?0?0?0?0----0?0?0?0----0?5?6--   4X 
 
E|----------------------------------- 
B|----------------------------------- 
G|----------------------------------- 
D|x--1?2?3?0?1?2?4?0?1?2?3?0--0?5?6-- 
A|x--1?2?3?0?1?2?4?0?1?2?3?0--0?5?6-- 
D|x--1?2?3?0?1?2?4?0?1?2?3?0--0?5?6--  4X 
 
E|-------------------- 
B|-------------------- 
G|-------------------- 
D|x--1?0?4?0?1?0?3?0-- 
A|x--1?0?4?0?1?0?3?0-- 
D|x--1?0?4?0?1?0?3?0--   12X 
 
E|------------------------------------ 
B|------------------------------------ 
G|------------------------------------ 
D|--1?0?4?0?1?0?3?0------------------- 
A|--1?0?4?0?1?0?3?0------------------- 
D|--1?0?4?0?1?0?3?0?-5?8?7?4?3?6?5?2--  5X 
 
E|------------------------------------------ 
B|------------------------------------------ 
G|------------------------------------------ 
D|------------------------------------------ 
A|-----10------9-------7-------5?4?0-------- 
D|--9-------7------5--------4---------------  2X 
 
E|----------------------------------------------------- 
B|----------------------------------------------------- 
G|----------------------------------------------------- 
D|----------------------------------------------------- 
A|-----10?9?10?9------10?9?7------7?5?7?5-------5?4?0-- 
D|--9--------------7-----------5-------------4---------  2X 
 
E|------------------------------------------ 
B|------------------------------------------ 
G|------------------------------------------ 
D|--9----------7--------5--------4---------- 
A|--9---10-----7---9----5---7----4---5?4?0-- 
D|--9----------7--------5--------4----------   4X 
 
E|------------------------------------ 
B|------------------------------------ 
G|--9-------9-------9----------------- 
D|--8--0?0-?8-?0?0-?8-?0?0----10------ 
A|--7?-0?0?-7?-0?0?-7?-0?0-?9----9?8-- 
D|-----0?0-----0?0-----0?0------------   4X 
 
E|--------- 
B|--------- 
G|--9---9-- 
D|--8---8-- 
A|--7---7-- 
D|------0-- 
 
E|------------------------------------| 
B|------------------------------------|        
G|---------------------------------9--| 
D|--2?3?2?0?2?3?2?0?2?3?2?0----0?0?8--|    
A|--2?3?2?0?2?3?2?0?2?3?2?0----0?0?7--|       
D|--2?3?2?0?2?3?2?0?2?3?2?0----0?0----|       
                                      |   2X 
E|----------------------------------- | 
B|----------------------------------- | 
G|----------------------------9?9?9-- | 
D|--2?3?2?0?2?3?2?0?2?3?2?0---8?8?8-- | 
A|--2?3?2?0?2?3?2?0?2?3?2?0---7?7?7-- | 
D|--2?3?2?0?2?3?2?0?2?3?2?0---------- | 
 
 
E|----- 
B|----- 
G|----- 
D|--0-- 
A|--0-- 
D|--0-- 
 
Guitar 1 
E|--------------------------------- 
B|--------------------------------- 
G|--------------------------------- 
D|--0----3-2-1-0------3-2-1-0------ 
A|--0----3-2-1-0--1---3-2-1-0---2-- 
D|--0?---3?2?1?0-----?3?2?1?0------  
 
Both                               
E|-------------------------- 
B|-------------------------- 
G|-------------------------- 
D|--3-2-1-0-----3-2-1-0----- 
A|--3-2-1-0--1--3-2-1-0--2-- 
D|--3?2?1?0----?3?2?1?0-----  6X 
 
E|------------------------------------------------- 
B|------------------------------------------------- 
G|------------------------------------------------- 
D|-x----3---2---1---0----------3----2---1---0------ 
A|-x----3---2---1---0---1------3----2---1---0---2-- 
D|-x----3---2---1---0----------3----2---1---0------  2X 
 
E|---------------------------------------------- 
B|---------------------------------------------- 
G|---------------------------------------------- 
D|----3---2---1---0---------3----2---1---0------ 
A|----3---2---1---0---1-----3----2---1---0---2-- 
D|----3---2---1---0---------3----2---1---0------   4X 
 
E|--------- 
B|--------- 
G|--------- 
D|--0?0?0-- 
A|--0?0?0-- 
D|--0?0?0-- 
 
Guitar 1 
E|------------- 
B|------------- 
G|------------- 
D|--0?1?1?4?3-- 
A|--0?1?1?4?3-- 
D|--0?1?1?4?3--  4x 
 
Then Guitar 2 
E|--------------------- 
B|--------------------- 
G|--------------------- 
D|------------2?5?3?6-- 
A|--2?5?3?6------------ 
D|---------------------  4x 
 
Both 
E|------------------------------ 
B|------------------------------ 
G|------------------------------ 
D|--0?1?4?3------------2?5?3?6-- 
A|--0?1?4?3---2?5?3?6----------- 
D|--0?1-4?3---------------------  4x 
 
E|------------------------------------ 
B|------------------------------------ 
G|------------------------------------ 
D|x--0?0?0?0?1?1?1?1?4?4?4?4?3?3?3?3-- 
A|x--0?0?0?0?1?1?1?1?4?4?4?4?3?3?3?3-- 
D|x--0?0?0?0?1?1?1?1?4?4?4?4?3?3?3?3--    8X 
 
E|-------------------------- 
B|-------------------------- 
G|-------------------------- 
D|--0?0?1?1?4?4?3?0?6/7----- 
A|--0?0?1?1?4?4?3?0--------- 
D|--0?0?1?1?4?4?3?0---------   8x 
 
E|--------------------------------- 
B|--------------------------------- 
G|--------------------------------- 
D|--0------------------------------ 
A|--0------------------------------ 
D|--0------5?8---4?7---3?6---2?5---   
 
E|--------------------------- 
B|--------------------------- 
G|--------------------------- 
D|---5?8---4?7---3?6---2?5---   
A|---5?8---4?7---3?6---2?5---   
D|---5?8---4?7---3?6---2?5---  2x 
 
E|------- 
B|------- 
G|------- 
D|--5?8-- 
A|--5?8-- 
D|--5?8-- 
 
END... 
 

		  

See also:

tabs Pantera - Cemetary Gates tabs Twisted Syster - Were not gonna take tabs Marilyn Manson - Disposable Teens tabs Dream Theater - Endless Sacrifice tabs Manowar - Brothers Of Metal tabs Alice Cooper - Poison
e-chords

Other versions:

tabs The Rolling Stones - Heart of Stone tabs Underoath - Heart of stone
auto scroll beats size up size down change color hide chords drawings
tab show chords e-chords YouTube Clip e-chords hide all tabs e-chords go to top tab

share