Underoath

A Fault Line. A Fault Of Mine

Underoath

tabs

by  INDESTRUCTIBLE

save to print version add songbook text version e-mail correct tuner
chordsukulelecavacokeyboardtabbassdrumsharmonicaflute Guitar Pro
close

there isn't a video lesson for this song

chords

A Fault Line. A Fault Of Mine

	  		     Intro 
E---------------5-5-5-5-5-5-5-------------------------| 
B-2-2-2-2-2-2-2---------------3-3-3-3-3-3-3-5-5-5-5-5-| 
G-----------------------------------------------------| 
D-----------------------------------------------------| 
A-----------------------------------------------------| 
E-----------------------------------------------------| 

     Verse 
E-------------5-5-5-5-5-5-5-5-------------------------| 
B-2-2-2-2-2-2-----------------3-3-3-3-3-3-5-5-5-5-5-5-| 
G-----------------------------------------------------| 
D-----------------------------------------------------| 
A-----------------------------------------------------| 
E-----------------------------------------------------| 

     Bridge 
E---------------------------------| 
B---------------------------------| 
G-3-3-3-3-7-7-7-7-5-5-5-5-6-6-6-6-| 
D-3-3-3-3-7-7-7-7-5-5-5-5-6-6-6-6-| 
A---------------------------------| 
E---------------------------------| 

     Chorus 
E----------------------------------------------| 
B----------------------------------------------| 
G-7-7-7-7-7-10-10-10-10-10-4-4-4-4-4-5-5-5-5-5-| 
D-7-7-7-7-7-10-10-10-10-10-4-4-4-4-4-5-5-5-5-5-| 
A-5-5-5-5-5-8--8--8--8--8--2-2-2-2-2-3-3-3-3-3-| 
E----------------------------------------------| 
		  

See also:

tabs Pantera - Cemetary Gates tabs Twisted Syster - Were not gonna take tabs Marilyn Manson - Disposable Teens tabs Dream Theater - Endless Sacrifice tabs Manowar - Brothers Of Metal tabs Alice Cooper - Poison
e-chords

Other versions:

tabs Underoath - A Fault Line. A Fault Of Mine
auto scroll beats size up size down change color hide chords drawings
tab show chords e-chords YouTube Clip e-chords hide all tabs e-chords go to top tab

share