Ultraje a Rigor

home > Ultraje a Rigor

Maximillian Sheldon (Acústico MTV) Tab

Ultraje a Rigor

Difficulty: IntermediateIntermediate

by Pato%5F

tuner correct add songbook print version text version save to e-mail
chordsukulelecavacokeyboardtabbassdrumsharmonicsflute Guitar Pro
chords

Maximillian Sheldon (Acústico MTV)

  		Intro: 
 
  >todos: 
 
e-4--4--4--4--4-4-4--4--4--4--12-12- 
B-5--5--5--5--5-5-5--5--5--5-------- 
G-5--5--5--5--5-5-5--5--5--5-------- 
D-4--4--4--4--4-4-4--4--4--4-------- 
A----------------------------------- 
E----------------------------------- 
 
A parte que o Roger toca no verso da música é só ficar tocado isso: 
 
e--12-   a música todinha =} 
 
e os outros assim: 
 
e------------------------------ 
B------------------------------ 
G-2-2-1-1-0-0------------------ 
D------------4-4-3-3-2-2-0----- 
A--------------------------3-0- 
E------------------------------- 
 
 
Entre um verso e outro e o Pré Refrão: 
 
  >Roger: 
 
e-12-12-11-11------------------------------ 
B-------------12-12-15-15-11-11-14-14------ 
G-------------------------------------12-9- 
D------------------------------------------ 
A------------------------------------------ 
E------------------------------------------ 
 
  >os outros: 
 
e-------------------------------- 
B-------------------------------- 
G-2-2-1-1------------------------ 
D----------2-2-5-5-1-1-4-4------- 
A--------------------------0-3-0- 
E-------------------------------- 
 
Refrão: 
 
                   Bb Am 
Maximillian Sheldon 
                   Bb Bb Bb Am 
Maximillian Sheldon 
                   Bb Bb Am 
Maximillian Sheldon 
 
e-12h13-18- 
deixa soar bem mto tempo, (eu axo q no overdrive fica bom =}). 
 
 
Antes do solo de bateria: 
 
  >Roger: 
 
e-12-12-11-11------------------------------ 
B-------------12-12-15-15-11-11-14-14------ 
G-------------------------------------12-9- 
D------------------------------------------ 
A------------------------------------------ 
E------------------------------------------ 
 
  >os outros: 
e-------------------------------- 
B-------------------------------- 
G-2-2-1-1------------------------ 
D----------2-2-5-5-1-1-4-4------- 
A---------------------------3-0-- 
E-------------------------------- 
 
Arrastam a palheta nas cordas e: 
 
e-------------4-------------4-4-------------4-4-4------------- 
B--7-5-7-7-5--5--7-5-7-7-5--5-5--7-5-7-7-5--5-5-5--7-5-7-7-5-- 
G--7-5-7-7-5--5--7-5-7-7-5--5-5--7-5-7-7-5--5-5-5--7-5-7-7-5-- 
D--7-5-7-7-5--4--7-5-7-7-5--4-4--7-5-7-7-5--4-4-4--7-5-7-7-5-- 
A------------------------------------------------------------- 
E------------------------------------------------------------- 
 
Durante o solo de bateria fica 
 
e-4--    
B-5--       
G-5--    
D-4-- 
A---- 
E---- 
 
a ordem das batidas é assim (intercalando uma vez bateria e 
outra dá aquela nota acima):  
 
1 batida 
1 batida 
2 batidas 
3 batidas 
3 batidas 
2 batidas 
1 batida 
1 batida 
 
solo: 
 
e------------------------------------------10-12-14-- 
B----------------------------------10-12-13---------- 
G-5h9-12-11-9-8-9-12-11-9-8-9-12-11------------------ 
D---------------------------------------------------- 
A---------------------------------------------------- 
E---------------------------------------------------- 
 
Toca muitas vezes e rápido cada nota. 
 
 
A parte que ele vai matar o Maximillian Sheldon eu não sei muito bem, então não vou botar aqui xD 
 
 
No final é só você ficar tocando normal e ir diminuindo a velocidade até 
acabar nisso: 
 
e-4--    
B-5--       
G-5--    
D-4-- 
A---- 
E---- 

	  

Full key step upFull key step up
Half key step upHalf key step up
Half key step downHalf key step down
Full key step downFull key step down
Search Paypal
auto scroll beats size up size down change color hide chords drawings
tab show chords e-chords YouTube Clip e-chords hide all tabs e-chords go to top tab