Ultraje a Rigor

home > Ultraje a Rigor

Eu gosto de mulher Tab

Ultraje a Rigor

Difficulty: BeginnerBeginner

by nowhere%5Fman

tuner correct add songbook print version text version save to e-mail
chordsukulelecavacokeyboardtabbassdrumsharmonicsflute Guitar Pro
chords

Eu gosto de mulher

Year: 2002 - Album: Acustico MTV

  		Riff 01 
e|------------| 
B|------------| 
G|----7-----9-| 
D|-7--7--9--9-| 
A|-7--5--9--7-| 
E|-5-----7----| 
   A  D  B  E 
 
 
Riff 02 
e|----------------| 
B|----------------| 
G|-----7*------9*-| 
D|-7*--7*--9*--9*-| 
A|-7*--5*--9*--7*-| 
E|-5*------7*-----| 
   A   D   B   E 
 
 
Riff 03 
e|-------------------------------| 
B|-------------------------------| 
G|-------------------------------| 
D|-------------------------------| 
A|-------------------------------| 
E|-0h3p0--5--3--0--3--5--5--3--0-| 
 
 
Riff 04 
e|------------| 
B|------------| 
G|-2*--4*-----| 
D|-2*--4*--5*-| 
A|-0*--2*--5*-| 
E|---------3*-| 
   A   B   G 
 
 
Riff 05 
e|--------------------| 
B|--------------------| 
G|---4----5----7----9-| 
D|-4-4--5-5--7-7--9-9-| 
A|-4-2--5-3--7-5--9-7-| 
E|-2----3----5----7---| 
   F# B  G C  A D  B E 
 
 
Solo 
e|-----------------------------------------------| 
B|-7-7-7-7-7-7-7-6h7-7-7-7-7-7-7-7-6h7-7-7-7-6h7-| 
G|-----------------------------------------------| 
D|-----------------------------------------------| 
A|-----------------------------------------------| 
E|-----------------------------------------------| 
 
e|----------------------------------| 
B|-7-7-7-6-6-5-5-4-4-3-3--7p6p5p4/3-| 
G|----------------------------------| 
D|----------------------------------| 
A|----------------------------------| 
E|----------------------------------| 
 
e|-----------------------------------------------| 
B|-7-7-7-7-7-7-7-6h7-7-7-7-7-7-7-7-6h7-7-7-7-6h7-| 
G|-----------------------------------------------| 
D|-----------------------------------------------| 
A|-----------------------------------------------| 
E|-----------------------------------------------| 
 
e|----------------------------------| 
B|-7-7-7-6-6-5-5-4-4-3-3--7p6p5p4/3-| 
G|----------------------------------| 
D|----------------------------------| 
A|----------------------------------| 
E|----------------------------------| 
 
e|-------------------------------------------------------------------| 
B|-10-10-10-10-10-10-10-9h10-10-10-10-10-10-10-10-9h10-10-10-10-9h10-| 
G|-------------------------------------------------------------------| 
D|-------------------------------------------------------------------| 
A|-------------------------------------------------------------------| 
E|-------------------------------------------------------------------| 
 
e|--------------------------------------| 
B|-10-10-10-9-9-8-8-7-7-6-6--10p9p8p7/6-| 
G|--------------------------------------| 
D|--------------------------------------| 
A|--------------------------------------| 
E|--------------------------------------| 
 
e|-----------------------------------------------| 
B|-7-7-7-7-7-7-7-6h7-7-7-7-7-7-7-7-6h7-7-7-7-6h7-| 
G|-----------------------------------------------| 
D|-----------------------------------------------| 
A|-----------------------------------------------| 
E|-----------------------------------------------| 
 
e|----------------------------------| 
B|-7-7-7-6-6-5-5-4-4-3-3--7p6p5p4/3-| 
G|----------------------------------| 
D|----------------------------------| 
A|----------------------------------| 
E|----------------------------------| 
 
e|--------------------------------------------------------------------| 
B|-9-8-7-6------------------------------------------------------------| 
G|---------9-8-7-6--7-6-5-4-------------------------------------------| 
D|--------------------------7-6-5-4--5-4-3-2--------------------------| 
A|-------------------------------------------5-4-3-2--3-2-1-0---------| 
E|------------------------------------------------------------3-2-1-0-| 
 
e|---------| 
B|---------| 
G|---------| 
D|---------| 
A|---------| 
E|-3-1-0-0-| 
 
 
Riff 06 
e|-------------------------------------------| 
B|-------------------------------------------| 
G|---4----5----7----8----9-----11-----13--14-| 
D|-4-4--5-5--7-7--8-8--9-9--11-11--13-13--14-| 
A|-4-2--5-3--7-5--8-6--9-7--11-9---13-11--12-| 
E|-2----3----5----6----7----9------11--------| 
   F# B  G C  A D  A# D# B E  C# F#  D# G#  A 
 
 
Agora Toque! 
 
 
> INTRO 
Riff 01 4x 
 
 
> PONTE 
Riff 03 (Riff 02) 2x 
 
 
> VERSOS 
(Riff 04) 
Vou te contar o que me faz andar 
Se não é por mulher não saio nem do lugar 
Eu já não tento nem disfarçar 
Que tudo em que eu me meto é só pra impressionar 
 
Mulher de corpo inteiro 
Não fosse por mulher e eu nem era roqueiro 
Mulher que se atrasa, mulher que vai na frente 
Mulher dona-de-casa, mulher pra presidente 
 
Mulher de qualquer jeito 
Você sabe que eu adoro um peito 
Peito pra dar de mamar 
E peito só pra enfeitar 
 
Mulher faz bem pra vista 
Tanto faz se ela é machista ou se é feminista 
'Cê pode até achar que é um pouco de exagero 
 
 
> PRÉ Refrão 
(Riff 05) 
Mas eu sei lá, nem quero saber, 
eu gosto de mulher, eu gosto de mulher 
 
 
> Refrão 
(Riff 02) 
Ô Ô Ô Ô  
Eu gosto é de mulher 
 
 
> PONTE 
Riff 03 (Riff 02) 2x 
 
 
> SOLO 
 
 
> PONTE 
Riff 03 (Riff 02) 2x 
 
 
> VERSOS 
(Riff 04) 
Nem quero que você me leve a mal 
Eu sei que hoje em dia isso nem é normal 
Eu sou assim meio atrasadão 
Conservador, reacionário e caretão 
 
Pra quê ser diferente 
Se eu fico sem mulher eu fico até doente 
Mulher que lava roupa, mulher que guia carro 
Mulher que tira a roupa, mulher pra tirar sarro 
 
Mulher eu já provei 
Eu sei que é bom demais, agora o resto eu não sei 
Sei que eu não vou mudar 
Sei que eu não vou nem tentar 
 
Desculpe esse meu defeito 
Eu juro que não é bem preconceito 
Eu tenho amigo homem, eu tenho amigo gay 
 
 
> PRÉ Refrão 
(Riff 05) 
Olha eu sei lá, eu sei que eu não sei, 
Eu gosto é de mulher Eu gosto é de mulher 
 
 
> Refrão 
(Riff 02) 
Ô Ô Ô Ô  
eu gosto é de mulher 
 
 
> FIM 
Riff 06 
 
 

	  

Full key step upFull key step up
Half key step upHalf key step up
Half key step downHalf key step down
Full key step downFull key step down
Search Paypal
auto scroll beats size up size down change color hide chords drawings
tab show chords e-chords YouTube Clip e-chords hide all tabs e-chords go to top tab