Tyler Ward Anna Clendening

Stay With Me

Tyler Ward Anna Clendening

tabs Beginner beginner

by  TARIKIKE

save to print version add songbook text version e-mail correct tuner
chordsukulelecavacokeyboardtabbassdrumsharmonicaflute Guitar Pro
close

there isn't a video lesson for this song

chords

Stay With Me

	  		

e|---------------------------------------------------------------------------| 
B|--------3------3-----------------------------------------------------------| 
G|-0------0------0-----------------------------------------------------------| 
D|-2-------------------------------------------------------------------------| 
A|--------2------------------------------------------------------------------| 
E|-0-------------3-----------------------------------------------------------| 

But? but... through whole song? Yep... his plucking them in this order for  
2min. Would i lie? See for urself!  
Anyway here is a plucking pattern so u can play along with Tyler! 

e|---------------------------------------------------------------------------| 
B|----------3----------3--------------------3-------------3------------------| 
G|--0----------0----0--------------0-----------0-------0---------------------| 
D|--------2------------------------------2-----------------------------------| 
A|----------------2-------------------------------0h2------------------------| 
E|-----0------------------3-----------0-----------------------3--------------| 

1min in the song he will start strum these chords. Just play along and have  
fun!  


Again im sorry if this isnt 100% correct but im pretty sure it will sound  
okey to play it like this!  

Take care 


************************************ 

| /   slide up 
| \   slide down 
| h   hammer-on 
| p   pull-off 
| ~   vibrato 
| +   harmonic 
| x   Mute note 
| b   Bend 
| pb  Pre-bend 
| br  Bend release 
| pbr Pre-bend release 
| brb Bend release bend 

************************************ 
		  

See also:

tabs Deep Purple - Strange kind of woman tabs Deep Purple - Smoke On The Water tabs Deep Purple - Time To Kill tabs Albert Hammond Jr - Gfc tabs Deep Purple - Soldier Of Fortune tabs Ira! - Nucleo De Base
e-chords

Other versions:

tabs Finch - Stay With Me tabs Foghat - Stay With Me tabs Weeping Willows - Stay With Me tabs Tyler Ward Anna Clendening - Stay With Me tabs Hannah Trigwell - Stay With Me tabs Finch - Stay With Me (ver. 2)
auto scroll beats size up size down change color hide chords drawings
tab show chords e-chords YouTube Clip e-chords hide all tabs e-chords go to top tab

share