Ty Segall

Tell Me What's Inside Your Heart

Ty Segall

tabs

by  IRONPOWER4EVER

save to print version add songbook text version e-mail correct tuner
chordsukulelecavacokeyboardtabbassdrumsharmonicaflute Guitar Pro
close

there isn't a video lesson for this song

chords

Tell Me What's Inside Your Heart

	  		


Intro 
e|--------------------------------------------------------------| 
B|--------------------------------------------------------------| 
G|-------------------------------------------------5-6-7-8------| 
D|--------5-6-7-8--------------------3-4-5-6--6~-6--------------| 
A|---6~-6--------------5-6-7-8--4~-4----------------------------| 
E|----------------6~-6------------------------------------------| 

e|--------------------------------------------------------------| 
B|--------------------------------------------------------------| 
G|-------------------------------------------4b---4b~-----------| 
D|--------5-6-7-8--------------------3-4-5-6----6----6----------| 
A|---6~-6--------------5-6-7-8--4~-4----------------------------| 
E|----------------6~-6------------------------------------------| 

e|-----------------------------------------------------------------| 
B|-----------------------------------------------------------------| 
G|--6--6-6-6-6-6-6-6-6-6-6-6--------------------------------7-7-7--| x2 
D|--6--6-6-6-6-6-6-6-6-6-6-6-7-7-7-4--4-4-4-4-4-4-4-4-4-4-4-7-7-7--| 
A|--4--4-4-4-4-4-4-4-4-4-4-4-7-7-7-4--4-4-4-4-4-4-4-4-4-4-4-5-5-5--| 
E|---------------------------5-5-5-2--2-2-2-2-2-2-2-2-2-2-2--------| 

Verse 1: 
e|-----------------------------------------------------------------| 
B|-----------------------------------------------------------------| 
G|--6--6-6-6-6-6-6-6-6-6-6-6--------------------------------7-7-7--| x3 
D|--6--6-6-6-6-6-6-6-6-6-6-6-7-7-7-4--4-4-4-4-4-4-4-4-4-4-4-7-7-7--| 
A|--4--4-4-4-4-4-4-4-4-4-4-4-7-7-7-4--4-4-4-4-4-4-4-4-4-4-4-5-5-5--| 
E|---------------------------5-5-5-2--2-2-2-2-2-2-2-2-2-2-2--------| 

e|------------------------------------------------------------------| 
B|------------------------------------------------------------------| 
G|--6--6-6-6-6-6-6-6-6-6-6-6----------------------------------------| x1 
D|--6--6-6-6-6-6-6-6-6-6-6-6-7-7-7-4--4-4-4-4-4-4-4-4-4-4-4-4-4-4-4-| 
A|--4--4-4-4-4-4-4-4-4-4-4-4-7-7-7-4--4-4-4-4-4-4-4-4-4-4-4-4-4-4-4-| 
E|---------------------------5-5-5-2--2-2-2-2-2-2-2-2-2-2-2-2-2-2-2-| 


Chorus 1: 
e|--------------------------------------------------------------| 
B|--------------------------------------------------------------| 
G|--4---4-4-4-4-4-4-------------------6--6-6-6-6-6-6-6-6-6-6-6--| 
D|--4---4-4-4-4-4-4--4---4-4-4-4-4-4--6--6-6-6-6-6-6-6-6-6-6-6--| x3 
A|--2---2-2-2-2-2-2--4---4-4-4-4-4-4--4--4-4-4-4-4-4-4-4-4-4-4--| 
E|-------------------2---2-2-2-2-2-2----------------------------| 


Solo chords: 
e|--------------------------------------------------------------------------| 
B|--------------------------------------------------------------------------| 
G|--4~--7~---6--6-6-6-6-6-6-6-6-6-6-6--------------------------------7-7-7--| 
D|--4~--7~---6--6-6-6-6-6-6-6-6-6-6-6-7-7-7-4--4-4-4-4-4-4-4-4-4-4-4-7-7-7--| 
A|--2~--5~---4--4-4-4-4-4-4-4-4-4-4-4-7-7-7-4--4-4-4-4-4-4-4-4-4-4-4-5-5-5--| 
E|------------------------------------5-5-5-2--2-2-2-2-2-2-2-2-2-2-2--------| 

e|--------------------------------------------------------------------| 
B|--------------------------------------------------------------------| 
G|--6--6-6-6-6-6-6-6-6-6-6-6--------------------------------7-7-7-----| 
D|--6--6-6-6-6-6-6-6-6-6-6-6-7-7-7-4--4-4-4-4-4-4-4-4-4-4-4-7-7-7-----| 
A|--4--4-4-4-4-4-4-4-4-4-4-4-7-7-7-4--4-4-4-4-4-4-4-4-4-4-4-5-5-5-----| 
E|---------------------------5-5-5-2--2-2-2-2-2-2-2-2-2-2-2-----------| 

Verse 2: 
e|-----------------------------------------------------------------| 
B|-----------------------------------------------------------------| 
G|--6--6-6-6-6-6-6-6-6-6-6-6--------------------------------7-7-7--| x3 
D|--6--6-6-6-6-6-6-6-6-6-6-6-7-7-7-4--4-4-4-4-4-4-4-4-4-4-4-7-7-7--| 
A|--4--4-4-4-4-4-4-4-4-4-4-4-7-7-7-4--4-4-4-4-4-4-4-4-4-4-4-5-5-5--| 
E|---------------------------5-5-5-2--2-2-2-2-2-2-2-2-2-2-2--------| 

e|------------------------------------------------------------------| 
B|------------------------------------------------------------------| 
G|--6--6-6-6-6-6-6-6-6-6-6-6----------------------------------------| x1 
D|--6--6-6-6-6-6-6-6-6-6-6-6-7-7-7-4--4-4-4-4-4-4-4-4-4-4-4-4-4-4-4-| 
A|--4--4-4-4-4-4-4-4-4-4-4-4-7-7-7-4--4-4-4-4-4-4-4-4-4-4-4-4-4-4-4-| 
E|---------------------------5-5-5-2--2-2-2-2-2-2-2-2-2-2-2-2-2-2-2-| 


Chorus 2: 
e|--------------------------------------------------------------| 
B|--------------------------------------------------------------| 
G|--4---4-4-4-4-4-4-------------------6--6-6-6-6-6-6-6-6-6-6-6--| 
D|--4---4-4-4-4-4-4--4---4-4-4-4-4-4--6--6-6-6-6-6-6-6-6-6-6-6--| x3 
A|--2---2-2-2-2-2-2--4---4-4-4-4-4-4--4--4-4-4-4-4-4-4-4-4-4-4--| 
E|-------------------2---2-2-2-2-2-2----------------------------| 

e|--------------| 
B|--------------| 
G|--4~--7~--6~--| 
D|--4~--7~--6~--| 
A|--2~--5~--4~--| 
E|--------------| 

e|------------------------------------------------------------------| 
B|------------------------------------------------------------------| 
G|------------------------------------------------------5-6-7-8-----| 
D|----------5-6-7-8---------------------3-4-5-6--6~-6-6-------------| 
A|---6~-6-6--------------5-6-7-8--4~-4-4----------------------------| 
E|----------------6~-6-6--------------------------------------------| 

e|----------------------------------------------------------| 
B|----------------------------------------------------------| 
G|----------------------------------------------4b~--4b-----| 
D|-----------5-6-7-8---------------------3-4-5-6---6---6-6--| 
A|----6~-6-6--------------5-6-7-8--4~-4-4-------------------| 
E|-----------------6~-6-6-----------------------------------| 

e|------------------------------------------------------------------| 
B|------------------------------------------------------------------| 
G|------------------------------------------------------5-6-7-8-----| 
D|----------5-6-7-8---------------------3-4-5-6--6~-6-6-------------| x2 
A|---6~-6-6--------------5-6-7-8--4~-4-4----------------------------| 
E|----------------6~-6-6--------------------------------------------| 

e|----| 
B|----| 
G|--6-| 
D|--6-| x32 
A|--4-| 
E|----| 



e|--------------------------------------------------------------------------| 
B|--------------------------------------------------------------------------| 
G|--4~--7~---6--6-6-6-6-6-6-6-6-6-6-6--------------------------------7-7-7--| 
D|--4~--7~---6--6-6-6-6-6-6-6-6-6-6-6-7-7-7-4--4-4-4-4-4-4-4-4-4-4-4-7-7-7--| 
A|--2~--5~---4--4-4-4-4-4-4-4-4-4-4-4-7-7-7-4--4-4-4-4-4-4-4-4-4-4-4-5-5-5--| 
E|------------------------------------5-5-5-2--2-2-2-2-2-2-2-2-2-2-2--------| 

e|--------------------------------------------------------------------| 
B|--------------------------------------------------------------------| 
G|--6--6-6-6-6-6-6-6-6-6-6-6--------------------------------7-7-7-----| 
D|--6--6-6-6-6-6-6-6-6-6-6-6-7-7-7-4--4-4-4-4-4-4-4-4-4-4-4-7-7-7-----| x2 
A|--4--4-4-4-4-4-4-4-4-4-4-4-7-7-7-4--4-4-4-4-4-4-4-4-4-4-4-5-5-5-----| 
E|---------------------------5-5-5-2--2-2-2-2-2-2-2-2-2-2-2-----------| 

e|------------------------------------------------------------------| 
B|------------------------------------------------------------------| 
G|--6--6-6-6-6-6-6-6-6-6-6-6----------------------------------------| x1 
D|--6--6-6-6-6-6-6-6-6-6-6-6-7-7-7-4--4-4-4-4-4-4-4-4-4-4-4-4-4-4-4-| 
A|--4--4-4-4-4-4-4-4-4-4-4-4-7-7-7-4--4-4-4-4-4-4-4-4-4-4-4-4-4-4-4-| 
E|---------------------------5-5-5-2--2-2-2-2-2-2-2-2-2-2-2-2-2-2-2-| 


Chorus 3: 
e|--------------------------------------------------------------| 
B|--------------------------------------------------------------| 
G|--4---4-4-4-4-4-4-------------------6--6-6-6-6-6-6-6-6-6-6-6--| 
D|--4---4-4-4-4-4-4--4---4-4-4-4-4-4--6--6-6-6-6-6-6-6-6-6-6-6--| x4 
A|--2---2-2-2-2-2-2--4---4-4-4-4-4-4--4--4-4-4-4-4-4-4-4-4-4-4--| 
E|-------------------2---2-2-2-2-2-2----------------------------| 

e|---------------------------------------| 
B|---------------------------------------| 
G|-4---4-6--4---7-6--4---4-6--4---7-6----| 
D|-4-4-4-6--4-4-7-6--4-4-4-6--4-4-7-6----| 
A|-2-4-2-4--2-4-5-4--2-4-2-4--2-4-5-4----| 
E|---2--------2--------2--------2--------| 
 
		  

See also:

tabs Red Hot Chili Peppers - Under the brigde tabs Red Hot Chili Peppers - Under the Bridge (completo) tabs 311 - The Love Song tabs Red Hot Chili Peppers - Live in Slane Castle tabs No Doubt - don't speak solo tabs Red Hot Chili Peppers - Under The Bridge Acoustic
e-chords

Other versions:

tabs Ty Segall - Tell Me What's Inside Your Heart
auto scroll beats size up size down change color hide chords drawings
tab show chords e-chords YouTube Clip e-chords hide all tabs e-chords go to top tab

share