Ty Segall

Tall Man Skinny Lady

Ty Segall

tabs

by  HEBEALMEIDA

save to print version add songbook text version e-mail correct tuner
chordsukulelecavacokeyboardtabbassdrumsharmonicaflute Guitar Pro
close

there isn't a video lesson for this song

chords

Tall Man Skinny Lady

	  		

Tuning: Standard 

INTRO/VERSE 
e|-4~-------------------------------------------------------------| 
B|-4~-------------------------------------------------------------| 
G|-5~-8-8-10-10-10-10---6~--8-8--10-10-10-10----------------------| 
D|-6~-8-8-10-10-10-10---6~--8-8--10-10-10-10----------------------| 
A|-6~-6-6-8--8--8--8----4~--6-6--8--8--8--8-----------------------| 
E|-4~-------------------------------------------------------------| 

Chorus 
e|-4~-44-44-44----------------------------------------------------| 
B|-4~-44-44-44----------------------------------------------------| 
G|-5~-55-55-55----------------------------------------------------| 
D|-6~-66-66-66----------------------------------------------------| 
A|-6~-66-66-66----------------------------------------------------| 
E|-4~-44-44-44----------------------------------------------------| 


ENDING INTRO RIFF 
under the final solo played the intro riff begins to be played like this 
e|-4~-------------------|--------------------------------------------| 
B|-4~-------------------|--------------------------------------------| 
G|-5~-8-8-10-10-10-10---|--6~--8-8--10-10-10-10----------------------| 
D|-6~-8-8-10-10-10-10-x1|--6~--8-8--10-10-10-10-x7-------------------|x1 
A|-6~-6-6-8--8--8--8----|--4~--6-6--8--8--8--8-----------------------| 
E|-4~-------------------|--------------------------------------------| 

e|-4~-------------------|--------------------------------------------| 
B|-4~-------------------|--------------------------------------------| 
G|-5~-8-8-10-10-10-10---|--6~--8-8--10-10-10-10----------------------| 
D|-6~-8-8-10-10-10-10-x1|--6~--8-8--10-10-10-10-x3-------------------|x3 
A|-6~-6-6-8--8--8--8----|--4~--6-6--8--8--8--8-----------------------| 
E|-4~-------------------|--------------------------------------------| 

e|-4~-------------------------------------------------------------| 
B|-4~-------------------------------------------------------------| 
G|-5~-8-8-10-10-10-10---6~--8-8--10-10-10-10----------------------| 
D|-6~-8-8-10-10-10-10---6~--8-8--10-10-10-10----------------------| 
A|-6~-6-6-8--8--8--8----4~--6-6--8--8--8--8-----------------------| 
E|-4~-------------------------------------------------------------| 

P.M 
e|---------------------------------------------| 
B|---------------------------------------------| 
G|---6~--8-8--10-10-10-10----------------------|x8 
D|---6~--8-8--10-10-10-10----------------------| 
A|---4~--6-6--8--8--8--8-----------------------| 
E|---------------------------------------------| 

This is what it sounds like is being played repeatedly over the final riffs.  
e|-0-xxxxxxxxxxxxxxxx--------| 
B|-0-xxxxxxxxxxxxxxxx--------| 
G|-0-xxxxxxxxxxxxxxxx--------| 
D|-0-xxxxxxxxxxxxxxxx--------| 
A|-0-xxxxxxxxxxxxxxxx--------| 
E|-0-xxxxxxxxxxxxxxxx--------| 

 
		  

See also:

tabs Red Hot Chili Peppers - Under the brigde tabs Red Hot Chili Peppers - Under the Bridge (completo) tabs 311 - The Love Song tabs Red Hot Chili Peppers - Live in Slane Castle tabs No Doubt - don't speak solo tabs Red Hot Chili Peppers - Under The Bridge Acoustic
e-chords

Other versions:

tabs Ty Segall - Tall Man Skinny Lady
auto scroll beats size up size down change color hide chords drawings
tab show chords e-chords YouTube Clip e-chords hide all tabs e-chords go to top tab

share