Ty Segall

Doctor Doctor

Ty Segall

tabs

by  ADALGOMES

save to print version add songbook text version e-mail correct tuner
chordsukulelecavacokeyboardtabbassdrumsharmonicaflute Guitar Pro
close

there isn't a video lesson for this song

chords

Doctor Doctor

	  		

Intro: 
     F                                      D 
e |-------------------------------------------------------------------------| 
B |--10---10---10---10---10---10---10-------7---7---7---7---7---7---7-------| 
G |--10---10---10---10---10---10---10--x-x--7---7---7---7---7---7---7--x-x--| x3 
D |--10---10---10---10---10---10---10--x-x--7---7---7---7---7---7---7--x-x--| 
A |--8----8----8----8----8----8----8---x-x--5---5---5---5---5---5---5--x-x--| 
E |-------------------------------------------------------------------------| 

   G                   C                 D 
|-------------------------------------------------------------------------------| 
|--12---12---12--------8---8---8---------10---10---10---10---10---10---10---10--| 
|--12---12---12--x--x--9---9---9---------11---11---11---11---11---11---11---11--| 
|--12---12---12--x--x--10--10--10--x--x--12---12---12---12---12---12---12---12--| x3 
|--10---10---10--x--x--10--10--10--x--x--12---12---12---12---12---12---12---12--| 
|----------------------8---8---8---x--x--10---10---10---10---10---10---10---10--| 

   G                   C                 D 
|-------------------------------------------------------------------------------| 
|--12---12---12--------8---8---8---------10-------------------------------------| 
|--12---12---12--x--x--9---9---9---------11-------------------------------------| 
|--12---12---12--x--x--10--10--10--x--x--12-------------------------------------| 
|--10---10---10--x--x--10--10--10--x--x--12-------------------------------------| 
|----------------------8---8---8---x--x--10-------------------------------------| 

Play all of the above twice. 

Verse: 
   F                        C              D 
|---------------------------------------------------------------------------------| 
|--10---10---10---10---10---8----8----8----10---10---10---10---10---10---10---10--| 
|--10---10---10---10---10---9----9----9----11---11---11---11---11---11---11---11--|  
|--10---10---10---10---10---10---10---10---12---12---12---12---12---12---12---12--| x3 
|--8----8----8----8----8----10---10---10---12---12---12---12---12---12---12---12--| 
|---------------------------8----8----8----10---10---10---10---10---10---10---10--| 

   G                   F                 D         G         D 
|-------------------------------------------------------------------------------| 
|--12---12---12--------10--10--10--------10---10---12---12---10---10---10---10--| 
|--12---12---12--x--x--10--10--10--x--x--11---11---12---12---11---11---11---11--| 
|--12---12---12--x--x--10--10--10--x--x--12---12---12---12---12---12---12---12--| x3 
|--10---10---10--x--x--8---8---8---x--x--12---12---10---10---12---12---12---12--| 
|----------------------------------------10---10-------------10---10---10---10--| 

   G                   F                 D 
|-------------------------------------------------------------------------------| 
|--12---12---12--------10--10--10--------10-------------------------------------| 
|--12---12---12--x--x--10--10--10--x--x--11-------------------------------------| 
|--12---12---12--x--x--10--10--10--x--x--12-------------------------------------| 
|--10---10---10--x--x--8---8---8---x--x--12-------------------------------------| 
|----------------------------------------10-------------------------------------| 

Weird solo thing: 

|--10------------------------------------------------------------------------------------------| 
|--10-----10h12--13---12---10-----------10-----------------------------------------------------| 
|------11----------------------12b--12------12-10----12----------------------------------------| 
|-------------------------------------------------12----12-10----12-10--------------------12br-| 
|-------------------------------------------------------------12-------12-10----12--------14---| 
|----------------------------------------------------------------------------13----13-10-------| 

End: 
   F                        C              D 
|---------------------------------------------------------------------------------| 
|--10---10---10---10---10---8----8----8----10---10---10---10---10---10---10---10--| 
|--10---10---10---10---10---9----9----9----11---11---11---11---11---11---11---11--|  
|--10---10---10---10---10---10---10---10---12---12---12---12---12---12---12---12--| x3 
|--8----8----8----8----8----10---10---10---12---12---12---12---12---12---12---12--| 
|---------------------------8----8----8----10---10---10---10---10---10---10---10--| 

   G                   F                 D         G         D 
|-------------------------------------------------------------------------------| 
|--12---12---12--------10--10--10--------10---10---12---12---10---10---10---10--| 
|--12---12---12--x--x--10--10--10--x--x--11---11---12---12---11---11---11---11--| 
|--12---12---12--x--x--10--10--10--x--x--12---12---12---12---12---12---12---12--| x3 
|--10---10---10--x--x--8---8---8---x--x--12---12---10---10---12---12---12---12--| 
|----------------------------------------10---10-------------10---10---10---10--| 

   G                   F                 D 
|-------------------------------------------------------------------------------| 
|--12---12---12--------10--10--10--------10-------------------------------------| 
|--12---12---12--x--x--10--10--10--x--x--11-------------------------------------| 
|--12---12---12--x--x--10--10--10--x--x--12-------------------------------------| 
|--10---10---10--x--x--8---8---8---x--x--12-------------------------------------| 
|----------------------------------------10-------------------------------------| 
		  

Full key step upFull key step up
Half key step upHalf key step up
Half key step downHalf key step down
Full key step downFull key step down
auto scroll beats size up size down change color hide chords drawings
tab show chords e-chords YouTube Clip e-chords hide all tabs e-chords go to top tab

share