Twinkle Brothers

Give Rastafari the Praise

Twinkle Brothers

tabs Intermediate intermediate

save to print version add songbook text version e-mail correct tuner
chordsukulelecavacokeyboardtabbassdrumsharmonicaflute Guitar Pro
close

there isn't a video lesson for this song

chords

Give Rastafari the Praise

	  		Verse - Chorus :
|     Em      Em      Bm      Bm  |
|---------------------------------|
|-5-4-----------------------------|
|-------7-7-5-7-------------------|
|-------------------------5---7---|


Bridge :
|     Em      Em      Am      Am  |     Bm      Bm      Bm      Bm  |
|---------------------------------|---------------------------------|
|-5-4-----------------------------|---------------------------------|
|-------7-7-5-7-------------------|-------------------------5-------|
|-----------------5-5-5-----0-5-6-|-7-7-7-8-7-5-7-------------------|
		  

Full key step upFull key step up
Half key step upHalf key step up
Half key step downHalf key step down
Full key step downFull key step down
hide glossary

See also:

tabs Tiken Jah Fakoly - Tonton d'America tabs Toots and the Maytals - Pressure Drop tabs Twinkle Brothers - Since I throw the comb away tabs Tryo - C'est du roots tabs Tryo - Les soldats de plomb tabs Israel Vibration - Rudeboy shufflin
e-chords

Other versions:

tabs Twinkle Brothers - Give Rastafari the Praise
auto scroll beats size up size down change color hide chords drawings
tab show chords e-chords YouTube Clip e-chords hide all tabs e-chords go to top tab

share