Twinkle Brothers

home > Twinkle Brothers

Free Africa Tab

Twinkle Brothers

Difficulty: BeginnerBeginner

tuner correct add songbook print version text version save to e-mail
chordsukulelecavacokeyboardtabbassdrumsharmonicsflute Guitar Pro
chords

Free Africa

  		Intro - Bridge :
|    Abm     Abm     Abm     Abm  |    Abm     Abm     Abm     Abm  |
|---------------------------------|---------------------------------|
|-----------4-6-------------------|-6-4-----------------------------|
|-------4-6-----------------------|-----6-4-------------------------|
|-4-6-7---------------------------|---------4-7-4-------------------|

Bridge : 

|    Abm     Abm     Ebm     Ebm  |
|---------------------------------|
|-6-6-6---6-6-6-----------4-4-4---|
|-------6-------------4h6---------|
|---------------------------------|
	  

Full key step upFull key step up
Half key step upHalf key step up
Half key step downHalf key step down
Full key step downFull key step down
Search Paypal
auto scroll beats size up size down change color hide chords drawings
tab show chords e-chords YouTube Clip e-chords hide all tabs e-chords go to top tab