Twin Atlantic

The Ghost Of Eddie

Twin Atlantic

tabs

by  FERNSANTANA

save to print version add songbook text version e-mail correct tuner
chordsukulelecavacokeyboardtabbassdrumsharmonicaflute Guitar Pro
close

there isn't a video lesson for this song

chords

The Ghost Of Eddie

	  		

intro/main riff (I made a few typos so Here's the right version imo) 
|-----------------------||---------------------|   
|-----------------------||---------------------| 
|-12-12-12-12-12/14-----||-12/11-11-11-11/9-9-9|  
|-----------------------||---------------------| 
|-10-10-10-10-10/12-----||-10/9--9--9--9/-7-7-7| 
|-----------------------||---------------------| 

|-----------------------||---------------------|   
|-----------------------||---------------------|  
|-12-12-12-12-12/14-----||-12/11-11------------| after this strum behind the 
|-----------------------||---------------------| nut twice or harmonic 
|-10-10-10-10-10/12-----||-10/9--9-------------| 
|-----------------------||---------------------| 

|-----------------------||---------------------|   
|-----------------------||---------------------| 
|-12-12-12-12-12/14-----||-12/11-11-11-11/9-9-9|  
|-----------------------||---------------------| 
|-10-10-10-10-10/12-----||-10/9--9--9--9/-7-7-7| 
|-----------------------||---------------------| 
verse (palm mute) 
|-----------------------||---------------------|   
|-----------------------||---------------------| 
|-----------------------||---------------------|  
|-----------------------||---------------------| x4 
|-10-10-10-13-13-13-13--||-4-4-4-7-7-7-7-------| 
|-10-10-10-13-13-13-13--||-4-4-4-7-7-7-7-------| 

Repeat main riff and verse 

pre-chorus 
|-----------------------||---------------------|   
|-----------------------||---------------------| 
|-----------------------||---------------------|  
|-----------------------||---------------------| 
|-5-----9-----7---------||-5-----0-----7-------| 
|-5(x8)-9(x8)-7(x16)----||-5(x8)-0(x8)-7(x16)--| 

chorus (I'm not so sure here) 
|-----------------------||-------------------------|   
|-----------------------||-------------------------| 
|-----------------------||-------------------------|  
|-----------------------||-------------------------| 
|-0-----7-----5---------||-0-----9-----7-----0-----| 
|-0(x8)-7(x8)-5(x16)----||-0(x8)-9(x2)-7(x2)-0(x8)-| 

"EVERYBODY SCREAMED" 

|------------------------| 
|------------------------| 
|------------------------| x2 
|------------------------| 
|-12b-0-3-4-0-12b-0-0-3-0| 
|-12b-0-3-4-0-12b-0-0-3-0| 

|-------| 
|-------| 
|-------| 
|-------| 
|-12----| 
|-12(x8)| 
repeat verse, main riff(without palm mute this time), chorus "everybody screamed" 
first tab so I apologize if I wasn't accurate 
		  

See also:

tabs Biffy Clyro - Thunder Monster tabs Twin Atlantic - The Ghost Of Eddie tabs Biffy Clyro - Sorry And Thanks tabs Biffy Clyro - Eyelids tabs Frightened Rabbit - Head Rolls Off tabs Biffy Clyro - Picture A Knife Fight
e-chords

Other versions:

tabs Twin Atlantic - The Ghost Of Eddie
auto scroll beats size up size down change color hide chords drawings
tab show chords e-chords YouTube Clip e-chords hide all tabs e-chords go to top tab

share