Twin Atlantic

Serious Underground Dance Vibes

Twin Atlantic

tabs

by  JESSGOMES

save to print version add songbook text version e-mail correct tuner
chordsukulelecavacokeyboardtabbassdrumsharmonicaflute Guitar Pro
close

there isn't a video lesson for this song

chords

Serious Underground Dance Vibes

	  		


Intro:     (with delay, neck pickup) 

e|--------------------------------------------------| 
B|--------------------------------------------------| 
G|---x---x-x-x-x-x----------------------------------| 
D|---x---x-x-x-x-x------ x 8 ---(then throughout)---| 
A|---x---x-x-x-x-x----------------------------------| 
D|---x---x-x-x-x-x----------------------------------| 

Still using the delay - This bit just keeps going in the background 
e|-----------------|-----------------| 
B|---7----3--------|---7----8----3---| 
G|-------------2---|-----------------| 
D|-----------------|-----------------| 
A|---5----2--------|---5----7----2---| 
D|-------------5---|-----------------| 

Lower the delay and switch to middle/all pickups  
e|-----------------------|-------------------------| 
B|--10-------------------|-------------------------| 
G|-----7--9-7/9----------|---4--------4--------7---| 
D|---------------7-7/9---|------7--4-----7--4--0---| 
A|-----------------------|-------------------------| 
D|-----------------------|-------------------------| 



That other section (when the Bass comes in): 

e|-------------------------|----------------------7-------12--10-| 
B|-------------------------|------10-----10----10------10--------| 
G|-7-----7h9--9-    bend   |--7h9----9-9-----9-------9-----------| 
D|----7---------  slightly |-------------------------------------| 
A|-------------------------|-------------------------------------| 
D|-------------------------|-------------------------------------| 



It then goes back to start (after the muted bit) and does all that again. 

The second time after that bit it goes: 
(with lots of distortion/fuzz, bridge pickup) 
e|----------------------------|--------------5-2----------------| 
B|--3----8----10---10--7------|--10--7-----3---------8----------| 
G|--2----7----9----11--9------|--11--9---2--------7-------------| 
D|--0----5----0----9---7-- x2-|--9---7---0--------5------ x2 ---| 
A|--0----5----0----9---7------|--9---7---0--------5-------------| 
D|--0----5----0----9---7------|--9---7---0--------5-------------| 

e|------2-------------------------| 
B|--3----------8------10---10--7--| 
G|--2-------7------9-------11--9--|                          2 
D|--0-------5------0-------9---7--|  x2 After 2nd time let a 0 ring 
A|--0-------5------0-------9---7--|                          0 
D|--0-------5------0-------9---7--|                          0 


Back to the versey type bit 
Then the introduction again 

Then the end: 

e|------| 
B|--3---| 
G|--2---|  
D|--0---|  
A|--0---|                           
D|--0---|                            
		  

See also:

tabs Biffy Clyro - Thunder Monster tabs Twin Atlantic - The Ghost Of Eddie tabs Biffy Clyro - Sorry And Thanks tabs Biffy Clyro - Eyelids tabs Frightened Rabbit - Head Rolls Off tabs Biffy Clyro - Picture A Knife Fight
e-chords

Other versions:

tabs Twin Atlantic - Serious Underground Dance Vibes
auto scroll beats size up size down change color hide chords drawings
tab show chords e-chords YouTube Clip e-chords hide all tabs e-chords go to top tab

share