Turnover

Shiver Tab

Turnover

Difficulty: nolevelnolevel

by tarikike

tuner correct add songbook print version text version save to e-mail
chordsukulelecavacokeyboardtabbassdrumsharmonicsflute Guitar Pro
close

there isn't a video lesson for this song

request
chords

Shiver

Key:  E More
Shiver Key BB
Shiver Key CC
Shiver Key C#C#
Shiver Key DD(one step down)
Shiver Key D#D#(half step down)
Shiver Key EE(original key)
Shiver Key FF(half step up)
Shiver Key F#F#(one step up)
Shiver Key GG
Shiver Key G#G#
Shiver Key AA
Shiver Key A#A#
  		

Intro 

e|-------------------------------------------------------------------------| 
B|-------------------------------------------------------------------------| 
G|-5-5-5-5-7-7-7-7-12-12-12-12-12-12-12-12-----------------7-7-7-7-7-7-7-7-| 
D|-5-5-5-5-8-8-8-8-10-10-10-10-10-10-10-10-5-5-5-5-3-3-3-3-8-8-8-8-8-8-8-8-| 
A|-3-3-3-3-6-6-6-6-8--8--8--8--8--8--8--8--6-6-6-6-3-3-3-3-6-6-6-6-6-6-6-6-| 
E|-----------------------------------------4-4-4-4-1-1-1-1-----------------| 

e|-----------------------------------------------------------------| 
B|-----------------------------------------------------------------| 
G|-5-5-5-5-7-7-7-7-12-12-12-12-12-12-12-12-----------------7-7-7-7-| 
D|-5-5-5-5-8-8-8-8-10-10-10-10-10-10-10-10-5-5-5-5-3-3-3-3-8-8-8-8-| 
A|-3-3-3-3-6-6-6-6-8--8--8--8--8--8--8--8--6-6-6-6-3-3-3-3-6-6-6-6-| 
E|-----------------------------------------4-4-4-4-1-1-1-1---------| 

verse 1 

e|-----------------------------------------------------------------| 
B|-----------------------------------------------------------------| 
G|-3-3-3-3-3-3-3-3-------------------------------------------------| 
D|-5-5-5-5-5-5-5-5-5-5-5-5-5-5-5-5-3-3-3-3-3-3-3/5-5-5-5-5-5-5-5-5-| 
A|-3-3-3-3-3-3-3-3-6-6-6-6-6-6-6-6-3-3-3-3-3-3-3/6-6-6-6-6-6-6-6-6-| 
E|-----------------4-4-4-4-4-4-4-4-1-1-1-1-1-1-1/4-4-4-4-4-4-4-4-4-| 

e|-------------------------------------------------------------------| 
B|-------------------------------------------------------------------| 
G|-3-3-3-3-3-3-3-3---------------------------------------------------| 
D|-5-5-5-5-5-5-5-5-5-5-5-5-5-5-5-5-3-3-3-3-3-3-3/5-5-5-5-5-5-5-5-5-5-| 
A|-3-3-3-3-3-3-3-3-6-6-6-6-6-6-6-6-3-3-3-3-3-3-3/6-6-6-6-6-6-6-6-6-6-| 
E|-----------------4-4-4-4-4-4-4-4-1-1-1-1-1-1-1/4-4-4-4-4-4-4-4-4-4-| 


Chorus 

e|-------------------------------------------------------------------------| 
B|-------------------------------------------------------------------------| 
G|-5-5-5-5-7-7-7-7-12-12-12-12-12-12-12-12-----------------7-7-7-7-7-7-7-7-| 
D|-5-5-5-5-8-8-8-8-10-10-10-10-10-10-10-10-5-5-5-5-3-3-3-3-8-8-8-8-8-8-8-8-| x2 
A|-3-3-3-3-6-6-6-6-8--8--8--8--8--8--8--8--6-6-6-6-3-3-3-3-6-6-6-6-6-6-6-6-| 
E|-----------------------------------------4-4-4-4-1-1-1-1-----------------| 

verse 2/Bridge 

e|---x-x-------------------------x-x-----------------------| 
B|---x-x-------------------------x-x-----------------------| 
G|-3-x-x-3-3-3-7--7--7-7-7-7-7---x-x-----------------------| 
D|-5-x-x-5-5-5/8--8--8-8-8-8-8-5-x-x-5-5-5-5--5--5-5-5-5-5-| 
A|-3-x-x-3-3-3/6--6--6-6-6-6-6-6-x-x-6-6-6-6--6--6-6-6-6-6-| 
E|---x-x-----------------------4-x-x-4-4-4-4--4--4-4-4-4-4-| 

e|---x-x-------------------------x-x--------------------| 
B|---x-x-------------------------x-x--------------------| 
G|-3-x-x-3-3-3-7--7--7-7-7-7-7---x-x--------------------| 
D|-5-x-x-5-5-5/8--8--8-8-8-8-8-5-x-x-5-5-5-5--5--5-5-5~-| 
A|-3-x-x-3-3-3/6--6--6-6-6-6-6-6-x-x-6-6-6-6--6--6-6-6~-| 
E|---x-x-----------------------4-x-x-4-4-4-4--4--4-4-4~-| 

Strumming pattern for next section isn't too hard to work out but I found it hard to tab. 

e|-------------------------------------------------------------------------| 
B|-------------------------------------------------------------------------| 
G|-3-3-3-3-7-7-7-7-----------------3-3-3-3-7-7-7-7-12-12-12-12-12-12-12-12-| 
D|-5-5-5-5-8-8-8-8-5-5-5-5-5-5-5-5-5-5-5-5-8-8-8-8-10-10-10-10-10-10-10-10-| x2 
A|-3-3-3-3-6-6-6-6-6-6-6-6-6-6-6-6-3-3-3-3-6-6-6-6-8--8--8--8--8--8--8--8--| 
E|-----------------4-4-4-4-4-4-4-4-----------------------------------------| 

e|--------------| 
B|--------------| 
G|-7~-----------| 
D|-8~-----5~----| 
A|-6~-----6~----| 
E|--------4~----| 


Outro 

e|-------------------------------------------------------------| 
B|-------------------------------------------------------------| 
G|-3-3-3-3-3-3-3-----------------7-7-7-7-7-7-7-----------------| 
D|-5-5-5-5-5-5-5--5-5-5-5-5-5-5--8-8-8-8-8-8-8--5-5-5-5-5-5-5--| 
A|-3-3-3-3-3-3-3--6-6-6-6-6-6-6--6-6-6-6-6-6-6--6-6-6-6-6-6-6--| x3 
E|----------------4-4-4-4-4-4-4-----------------4-4-4-4-4-4-4--| 

e|------------------------------| 
B|------------------------------| 
G|-3-3-3-3-3-3-3----------------| 
D|-5-5-5-5-5-5-5--5-5-5-5-5-5-5-| 
A|-3-3-3-3-3-3-3--6-6-6-6-6-6-6-|  
E|----------------4-4-4-4-4-4-4-| 

e|---------------------------------------------| 
B|---------------------------------------------| 
G|-7-7-7-7---------------3-3-3-3---------------| 
D|-8-8-8-8-5--5~--5--5-5-5-5-5-5-5--5~--5--5-5-| x3 
A|-6-6-6-6-6--6~--6--6-6-3-3-3-3-6--6~--6--6-6-|  
E|---------4--4~--4--4-4---------4--4~--4--4-4-| 

e|--------------------------------------------------| 
B|--------------------------------------------------| 
G|-7-7-7-7---------------3-3-3-3--------------------| 
D|-8-8-8-8-5--5~--5--5-5-5-5-5-5-5--5~--5--5~-----5-|  
A|-6-6-6-6-6--6~--6--6-6-3-3-3-3-6--6~--6--6~-----6-|  
E|---------4--4~--4--4-4---------4--4~--4--4~-----6-| 
 
	  

Search Paypal
auto scroll beats size up size down change color hide chords drawings
tab show chords e-chords YouTube Clip e-chords hide all tabs e-chords go to top tab

share with facebook