Tupac Shakur

Changes (acoustic)

Tupac Shakur

tabs

by  IRONPOWER4EVER

save to print version add songbook text version e-mail correct tuner
chordsukulelecavacokeyboardtabbassdrumsharmonicaflute Guitar Pro
close

there isn't a video lesson for this song

chords

Changes (acoustic)

	  		This tab is in a early stage. Feel free to give feedback! 



Intro: 
         ^        ^        ^            ^                     ^ 
E-----------------|-----------------|-----------------|---(3)--(3)------| 
B-----1-1---0-----|-------0---------|--0--0--1--0-----|----3----3-------| 
G-2p0-0-0---0-----|-2p0-2-----0-----|--0--0--0----0---|----0----0-------| 
D-----2----(2)----|-------------2p0-|--------2--------|----2----2-------| 
A-----0----(2)----|-----3-----3-----|--------0--------|----3----3-------| 
E-----------0-----|-----------------|-3---------------|-----------------| 

         ^        ^        ^            ^                     ^ 
E-----------------|-----------------|-----------------|---(3)--(3)------| 
B-----1-1---0-----|-------0---------|--0--0--1--0-----|----3----3-------| 
G-2p0-0-0---0-----|-2p0-2-----0-----|--0--0--0----0---|----0----0-------| 
D-----2----(2)----|-------------2p0-|--------2--------|----2----2-------| 
A-----0----(2)----|-----3-----3-----|--------0--------|----3----3-------| 
E-----------0-----|-----------------|-3---------------|-----------------| 

Then when the beat starts, play: 

       ^          ^       ^                ^                 ^ 
E--3-------2------|-----3---3-------|----3--3--2------|---(3)--(3)------| 
B--3-------3------|-----3---3-------|----3--3----3----|----3----3-------| 
G--0-------2------|-----0---0-------|----0--0------2--|----0----0-------| 
D--0-------0------|-----------------|----------0------|----2----2-------| 
A--2--------------|--3---------3-0--|-----------------|----3----3-------| 
E--3--------------|-----------------|--3--------------|-----------------| 




Chorus: 
                                           let this one ring--------/ 
E-------3---------|-----2-----------|------3----------|-----------------| 
B-------3---------|-----3-----------|------3----------|-----------------| 
G-----0-----------|---2-------------|-----0-----------|-----------------| 
D-----------------|--0--------------|-----------------|-----------------| 
A-----------------|-----------------|---3-------------|-----------------| 
E--3--------------|-----------------|-----------------|-----------------| 




p = pulloff 
() = optional 
^ = clap on guitar or on strings 


If u guys like it ill tweak and expand the tab! 
		  

auto scroll beats size up size down change color hide chords drawings
tab show chords e-chords YouTube Clip e-chords hide all tabs e-chords go to top tab

share