T.S.O.L.

Funeral March

T.S.O.L.

tabs

save to print version add songbook text version e-mail correct tuner
chordsukulelecavacokeyboardtabbassdrumsharmonicaflute Guitar Pro
close

there isn't a video lesson for this song

chords

Funeral March

Year: 1991 - Album: Dance With Me

	  		---KEY--- 
* = Harmonic 
 
 
Intro: 
---------------------------------------------------------------------| 
---------------------------------------------------------------------| 
---------------------------------------------------------------------| 
-2--5--7----7-7-7--7-7-7--7-7-7-7-7-7-7--7-7-7--7-7-7--7-7-7-7-7-7-7-| 
-2--5--7----7-7-7--7-7-7--7-7-7-7-7-7-7--7-7-7--7-7-7--7-7-7-7-7-7-7-| 
-0--3--5----5-5-5--5-5-5--5-5-5-5-5-5-5--5-5-5--5-5-5--5-5-5-5-5-5-5-| 
 
Palm Mute   ________________________________________________________| 
 
 
---------------------------------------------------------------------| 
---------------------------------------------------------------------| 
---------------------------------------------------------------------| 
-2--5--7----7-7-7--7-7-7--7-7-7-7-7-7-7--7-7-7--7-7-7--7-7-7-7-7-7-7-| 
-2--5--7----7-7-7--7-7-7--7-7-7-7-7-7-7--7-7-7--7-7-7--7-7-7-7-7-7-7-| 
-0--3--5----5-5-5--5-5-5--5-5-5-5-5-5-5--5-5-5--5-5-5--5-5-5-5-5-5-5-| 
 
Palm Mute   ________________________________________________________| 
 
 
---------------------------------------------------------------------| 
---------------------------------------------------------------------| 
---------------------------------------------------------------------| 
-2--5--7----7-7-7--7-7-7--7-7-7-7-7-7-7--7-7-7--7-7-7--7-7-7-7-7-7-7-| 
-2--5--7----7-7-7--7-7-7--7-7-7-7-7-7-7--7-7-7--7-7-7--7-7-7-7-7-7-7-| 
-0--3--5----5-5-5--5-5-5--5-5-5-5-5-5-5--5-5-5--5-5-5--5-5-5-5-5-5-5-| 
 
Palm Mute   ________________________________________________________| 
 
 
---------------------------------------------------------------------| 
---------------------------------------------------------------------| 
---------------------------------------------------------------------| 
-2--5--7----7-7-7--7-7-7--7-7-7-7-7-7-7--7-7-7--7-7-7--7-7-7-7-7-7-7-| 
-2--5--7----7-7-7--7-7-7--7-7-7-7-7-7-7--7-7-7--7-7-7--7-7-7-7-7-7-7-| 
-0--3--5----5-5-5--5-5-5--5-5-5-5-5-5-5--5-5-5--5-5-5--5-5-5-5-5-5-5-| 
 
Palm Mute   ________________________________________________________| 
 
 
Verse: 
---------------------------------------------------------------------| 
---------------------------------------------------------------------| 
---------------------------------------------------------------------| 
-2--5--7------------2--5--7------------2--5--7------------2--5--7----| 
-2--5--7--let ring--2--5--7--let ring--2--5--7--let ring--2--5--7----| 
-0--3--5------------0--3--5------------0--3--5------------0--3--5----| 
 
 
Chorus: 
-5*-----------------------------| 
---5*----------------5*---------| 
-----5*-5*-------------5*-------| 
------------2--5--7------5*-5*--| 
------------2--5--7-------------| 
------------0--3--5-------------| 
 
 
-----------5*-----------------------------| 
-------------5*----------------5*---------| 
---------------5*-5*-------------5*-------| 
-2--5--7--------------2--5--7------5*-5*--| 
-2--5--7--------------2--5--7-------------| 
-0--3--5--------------0--3--5-------------| 
 
Interlude: 
---------------------------------------------------------------------| 
---------------------------------------------------------------------| 
---------------------------------------------------------------------| 
-2--5--7----7-7-7--7-7-7--7-7-7-7-7-7-7--7-7-7--7-7-7--7-7-7-7-7-7-7-| 
-2--5--7----7-7-7--7-7-7--7-7-7-7-7-7-7--7-7-7--7-7-7--7-7-7-7-7-7-7-| 
-0--3--5----5-5-5--5-5-5--5-5-5-5-5-5-5--5-5-5--5-5-5--5-5-5-5-5-5-5-| 
 
Palm Mute   ________________________________________________________| 
 
 
---------------------------------------------------------------------| 
---------------------------------------------------------------------| 
---------------------------------------------------------------------| 
-2--5--7----7-7-7--7-7-7--7-7-7-7-7-7-7--7-7-7--7-7-7--7-7-7-7-7-7-7-| 
-2--5--7----7-7-7--7-7-7--7-7-7-7-7-7-7--7-7-7--7-7-7--7-7-7-7-7-7-7-| 
-0--3--5----5-5-5--5-5-5--5-5-5-5-5-5-5--5-5-5--5-5-5--5-5-5-5-5-5-5-| 
 
Palm Mute   ________________________________________________________| 
 
 
---------------------------------------------------------------------| 
---------------------------------------------------------------------| 
---------------------------------------------------------------------| 
-2--5--7----7-7-7--7-7-7--7-7-7-7-7-7-7--7-7-7--7-7-7--7-7-7-7-7-7-7-| 
-2--5--7----7-7-7--7-7-7--7-7-7-7-7-7-7--7-7-7--7-7-7--7-7-7-7-7-7-7-| 
-0--3--5----5-5-5--5-5-5--5-5-5-5-5-5-5--5-5-5--5-5-5--5-5-5-5-5-5-5-| 
 
Palm Mute   ________________________________________________________| 
 
 
---------------------------------------------------------------------| 
---------------------------------------------------------------------| 
---------------------------------------------------------------------| 
-2--5--7----7-7-7--7-7-7--7-7-7-7-7-7-7--7-7-7--7-7-7--7-7-7-7-7-7-7-| 
-2--5--7----7-7-7--7-7-7--7-7-7-7-7-7-7--7-7-7--7-7-7--7-7-7-7-7-7-7-| 
-0--3--5----5-5-5--5-5-5--5-5-5-5-5-5-5--5-5-5--5-5-5--5-5-5-5-5-5-5-| 
 
Palm Mute   ________________________________________________________| 
 
 
Verse: 
---------------------------------------------------------------------| 
---------------------------------------------------------------------| 
---------------------------------------------------------------------| 
-2--5--7------------2--5--7------------2--5--7------------2--5--7----| 
-2--5--7--let ring--2--5--7--let ring--2--5--7--let ring--2--5--7----| 
-0--3--5------------0--3--5------------0--3--5------------0--3--5----| 
 
 
Chorus: 
-5*-----------------------------| 
---5*----------------5*---------| 
-----5*-5*-------------5*-------| 
------------2--5--7------5*-5*--| 
------------2--5--7-------------| 
------------0--3--5-------------| 
 
 
-----------5*-----------------------------| 
-------------5*----------------5*---------| 
---------------5*-5*-------------5*-------| 
-2--5--7--------------2--5--7------5*-5*--| 
-2--5--7--------------2--5--7-------------| 
-0--3--5--------------0--3--5-------------| 
 
 
-5*-----------------------------| 
---5*------------------------5*-| 
-----5*-5*----------------5*----| 
------------2--5--7----5*-------| 
------------2--5--7-------------| 
------------0--3--5-------------| 
 
 
-----------5*-----------------------------| 
-------------5*------------------------5*-| 
---------------5*-5*----------------5*----| 
-2--5--7--------------2--5--7----5*-------| 
-2--5--7--------------2--5--7-------------| 
-0--3--5--------------0--3--5-------------| 
 
 
----------| 
----------| 
----------| 
-2--5--7\-| 
-2--5--7\-| 
-0--3--5\-| 
 
___________________________________________________
Contribuição  --- Adriano Shabba  [email protected]
		  

See also:

tabs Blue Oyster Cult - Dont Fear The Reaper tabs Guns N' Roses - Nightrain tabs Guns N' Roses - You Could Be Mine tabs Guns N' Roses - November Rain (Ver. Acoustic) tabs Guns N' Roses - Civil War tabs Guns N' Roses - Don't Cry
e-chords

Other versions:

tabs T.S.O.L. - Funeral March
auto scroll beats size up size down change color hide chords drawings
tab show chords e-chords YouTube Clip e-chords hide all tabs e-chords go to top tab

share