Trust But Verify

True Meaning Of Change

Trust But Verify

tabs

by  TERCMORAES

save to print version add songbook text version e-mail correct tuner
chordsukulelecavacokeyboardtabbassdrumsharmonicaflute Guitar Pro
close

there isn't a video lesson for this song

chords

True Meaning Of Change

	  		

Tuning: AEADF#B 

   Intro 
B |------------------------------------------------|------------------------------------------------| 
F#|------------------------------------------------|------------------------------------------------| 
D |------------------------------------------------|------------------------------------------------| 
A |------------------7-----------------------7-----|------------------7-------------------7h8-7-----| 
E |------5-----------------------5-----------------|------5-----------------5-----------5-------5---| 
A |5-----------5-----------------------5-----------|------------5-----------------5---------------5-| 


B |------------------------------------------------|------------------------------------------------| 
F#|------------------------------------------------|------------------------------------------------| 
D |------------------------------------------------|------------------------------------------------| 
A |------------------7-----------------------7-----|------------------7-------------------7h8-7-----| 
E |------5-----------------------5-----------------|------5-----------------5-----------5-------5---| 
A |5-----------5-----------------------5-----------|------------5-----------------5---------------5-| 


B |------------------------------------------------|------------------------------------------------| 
F#|------------------------------------------------|------------------------------------------------| 
D |------------------------------------------------|------------------------------------------------| 
A |------------------3-----------------------3-----|------------------3-----------------------------| 
E |------1-----------------------1-----------------|------1-----------------1-----------1-----------| 
A |1-----------1-----------------------1-----------|------------1-----------------1-----------------| 


B |------------------------------------------------|------------------------------------------------| 
F#|------------------------------------------------|------------------------------------------------| 
D |------------------------------------------------|------------------------------------------------| 
A |------------------3-----------------------3-----|------------------3-----------------------------| 
E |------1-----------------------1-----------------|------1-----------------1-----------1-----------| 
A |1-----------1-----------------------1-----------|------------1-----------------1-----------------| 


B |------------------------------------------------|------------------------------------------------| 
F#|------------------------------------------------|------------------------------------------------| 
D |------------------------------------------------|------------------------------------------------| 
A |0-----------0-----0-----0-----0-----10-8-7------|0-----------0-----0-----0-----0-----10-8-7------| 
E |0-----------0-----0-----0-----0-----------------|0-----------0-----0-----0-----0-----------------| 
A |0-----------0-----0-----0-----0-----------------|0-----------0-----0-----0-----0-----------------| 
  |            .     .     .     .                              .     .     .     .                 | 
  |                                                                                                 | 
  |                                                                                                 | 
B |------------------------------------------------|------------------------------------------------| 
F#|------------------------------------------------|------------------------------------------------| 
D |------------------------------------------------|------------------------------------------------| 
A |0-----------0-----0-----0-----0-----------------|0-----------0-----0-----0-----0-----------------| 
E |0-----------0-----0-----0-----0------8-7-5------|0-----------0-----0-----0-----0------8-7-5------| 
A |0-----------0-----0-----0-----0-----------------|0-----------0-----0-----0-----0-----------------| 
               .     .     .     .                              .     .     .     . 

   Verse 
B |------------------------------------------------|------------------------------------------------| 
F#|------------------------------------------------|------------------------------------------------| 
D |------------------------------------------------|------------------------------------------------| 
A |5-----------5-----5-----5-----5-----3p0-3/5-----|5-----------5-----5-----5-----5-----3p0-3/5-----| 
E |5-----------5-----5-----5-----5-----------------|5-----------5-----5-----5-----5-----------------| 
A |5-----------5-----5-----5-----5-----------------|5-----------5-----5-----5-----5-----------------| 
  |            .     .     .     .                              .     .     .     .                 | 
  |                                                                                                 | 
  |                                                                                                 | 
B |------------------------------------------------|------------------------------------------------| 
F#|------------------------------------------------|------------------------------------------------| 
D |------------------------------------------------|------------------------------------------------| 
A |5-----------5-----5-----5-----5-----7p0-7/8-----|5-----------5-----5-----5-----5-----7p0-7/8-----| 
E |5-----------5-----5-----5-----5-----------------|5-----------5-----5-----5-----5-----------------| 
A |5-----------5-----5-----5-----5-----------------|5-----------5-----5-----5-----5-----------------| 
               .     .     .     .                              .     .     .     .                  


B |------------------------------------------------|------------------------------------------------| 
F#|------------------------------------------------|------------------------------------------------| 
D |------------------------------------------------|------------------------------------------------| 
A |5-----------5-----5-----5-----5-----3p0-3/5-----|5-----------5-----5-----5-----5-----3p0-3/5-----| 
E |5-----------5-----5-----5-----5-----------------|5-----------5-----5-----5-----5-----------------| 
A |5-----------5-----5-----5-----5-----------------|5-----------5-----5-----5-----5-----------------| 
  |            .     .     .     .                              .     .     .     .                 | 
  |                                                                                                 | 
  |                                                                                                 | 
B |------------------------------------------------|------------------------------------------------| 
F#|------------------------------------------------|------------------------------------------------| 
D |------------------------------------------------|------------------------------------------------| 
A |5-----------5-----5-----5-----5-----7p0-7/8-----|5-----------5-----5-----5-----5-----7p0-7/8-----| 
E |5-----------5-----5-----5-----5-----------------|5-----------5-----5-----5-----5-----------------| 
A |5-----------5-----5-----5-----5-----------------|5-----------5-----5-----5-----5-----------------| 
               .     .     .     .                              .     .     .     .                  


B |------------------------------------------------|------------------------------------------------| 
F#|------------------------------------------------|------------------------------------------------| 
D |------------------------------------------------|------------------------------------------------| 
A |1-----------1-----1-----1-----1-----------------|1-----------1-----1-----1-----1-----------------| 
E |1-----------1-----1-----1-----1-----1p0-3/5-----|1-----------1-----1-----1-----1-----1p0-3/5-----| 
A |1-----------1-----1-----1-----1-----------------|1-----------1-----1-----1-----1-----------------| 
  |            .     .     .     .                              .     .     .     .                 | 
  |                                                                                                 | 
  |                                                                                                 | 
B |------------------------------------------------|------------------------------------------------| 
F#|------------------------------------------------|------------------------------------------------| 
D |------------------------------------------------|------------------------------------------------| 
A |1-----------1-----1-----1-----1-----------------|1-----------1-----1-----1-----1-----------------| 
E |1-----------1-----1-----1-----1-----5p3-5/6-----|1-----------1-----1-----1-----1-----5p3-5/6-----| 
A |1-----------1-----1-----1-----1-----------------|1-----------1-----1-----1-----1-----------------| 
               .     .     .     .                              .     .     .     .                  


B |------------------------------------------------|------------------------------------------------| 
F#|------------------------------------------------|------------------------------------------------| 
D |------------------------------------------------|------------------------------------------------| 
A |1-----------1-----1-----1-----1-----------------|0-----------0-----0-----0-----0-----10-8-7------| 
E |1-----------1-----1-----1-----1-----1p0-3/5-----|0-----------0-----0-----0-----0-----------------| 
A |1-----------1-----1-----1-----1-----------------|0-----------0-----0-----0-----0-----------------| 
  |            .     .     .     .                              .     .     .     .                 | 
  |                                                                                                 | 
  |                                                                                                 | 
B |------------------------------------------------|------------------------------------------------| 
F#|------------------------------------------------|------------------------------------------------| 
D |------------------------------------------------|------------------------------------------------| 
A |1-----------1-----1-----1-----1-----------------|0-----------0-----0-----0-----0-----------------| 
E |1-----------1-----1-----1-----1-----5p3-5/6-----|0-----------0-----0-----0-----0------8-7-5------| 
A |1-----------1-----1-----1-----1-----------------|0-----------0-----0-----0-----0-----------------| 
               .     .     .     .                              .     .     .     .                  


  Chorus 
B |------------------------------------------------|------------------------------------------------| 
F#|------------------------------------------------|------------------------------------------------| 
D |------------------------------------------------|------------------------------------------------| 
A |8-----------12----------5----------10-----------|8-----------12----------5----------10-----------| 
E |8-----------12----------5-----------8-----------|8-----------12----------5-----------8-----------| 
A |8-----------12----------5-----------7-----------|8-----------12----------5-----------7-----------| 
  


B |------------------------------------------------|------------------------------------------------| 
F#|------------------------------------------------|------------------------------------------------| 
D |------------------------------------------------|------------------------------------------------| 
A |8-----------12----------5-----------3-----------|8-----------12----------5-----------------------| 
E |8-----------12----------5-----------3-----------|8-----------12----------5-----------------------| 
A |8-----------12----------5-----------3-----------|8-----------12----------5-----------------------| 
  



B |------------------------------------------------|------------------------------------------------| 
F#|------------------------------------------------|------------------------------------------------| 
D |------------------------------------------------|------------------------------------------------| 
A |0-----------0-----------0-----------0-----------|0-----------0-----------0-----------0-----------| 
E |0-----------0-----------0-----------0-----------|0-----------0-----------0-----------0-----------| 
A |0-----------0-----------0-----------0-----------|0-----------0-----------0-----------0-----------| 


   Breakdown  
B |------------------------------------------------|------------------------------------------------| 
F#|------------------------------------------------|------------------------------------------------| 
D |------------------------------------------------|------------------------------------------------| 
A |------------------------------------8-----------|------------------------------------------------| 
E |------------------------------------6-----------|------------------------------------5-----5-----| 
A |0---5---0---5---0---5------0--5--0--6-----------|0---5---0---5---0---5------0--5--0--3-----4-----| 



   Solo Rhythm 
B |------------------------------------------------|------------------------------------------------| 
F#|------------------------------------------------|------------------------------------------------| 
D |------------------------------------------------|------------------------------------------------| 
A |5-----------5-----5-----5-----5-----5-5-5-------|5-----------5-----5-----5-----5-----5-5-5-------| 
E |5-----------5-----5-----5-----5-----5-5-5-------|5-----------5-----5-----5-----5-----5-5-5-------| 
A |5-----------5-----5-----5-----5-----5-5-5-------|5-----------5-----5-----5-----5-----5-5-5-------| 
               .     .     .     .     . . .                    .     .     .     .     . . .  


B |------------------------------------------------|------------------------------------------------| 
F#|------------------------------------------------|------------------------------------------------| 
D |------------------------------------------------|------------------------------------------------| 
A |5-----------5-----5-----5-----5-----5-5-5-------|5-----------5-----5-----5-----5-----5-5-5-------| 
E |5-----------5-----5-----5-----5-----5-5-5-------|5-----------5-----5-----5-----5-----5-5-5-------| 
A |5-----------5-----5-----5-----5-----5-5-5-------|5-----------5-----5-----5-----5-----5-5-5-------| 
               .     .     .     .     . . .                    .     .     .     .     . . .  


B |------------------------------------------------|------------------------------------------------| 
F#|------------------------------------------------|------------------------------------------------| 
D |------------------------------------------------|------------------------------------------------| 
A |1-----------1-----1-----1-----1-----1-1-1-------|1-----------1-----1-----1-----1-----1-1-1-------| 
E |1-----------1-----1-----1-----1-----1-1-1-------|1-----------1-----1-----1-----1-----1-1-1-------| 
A |1-----------1-----1-----1-----1-----1-1-1-------|1-----------1-----1-----1-----1-----1-1-1-------| 
               .     .     .     .     . . .                    .     .     .     .     . . .  



B |------------------------------------------------|------------------------------------------------| 
F#|------------------------------------------------|------------------------------------------------| 
D |------------------------------------------------|------------------------------------------------| 
A |1-----------1-----1-----1-----1-----1-1-1-------|0-----------0-----0-----0-----0-----0-0-0-------| 
E |1-----------1-----1-----1-----1-----1-1-1-------|0-----------0-----0-----0-----0-----0-0-0-------| 
A |1-----------1-----1-----1-----1-----1-1-1-------|0-----------0-----0-----0-----0-----0-0-0-------| 
               .     .     .     .     . . .                    .     .     .     .     . . .  



************************************ 

| /   slide up 
| \   slide down 
| h   hammer-on 
| p   pull-off 
| ~   vibrato 
| +   harmonic 
| x   Mute note 
| b   Bend 
| pb  Pre-bend 
| br  Bend release 
| pbr Pre-bend release 
| brb Bend release bend 

************************************ 
		  

See also:

tabs Deep Purple - Sail Away tabs Deep Purple - Pictures of Home tabs Deep Purple - Lazy tabs Deep Purple - Highway Star tabs Deep Purple - Deep Purple - Smoke On The Water tabs Deep Purple - Smoke On The Water (Intro + solo 01)
e-chords

Other versions:

tabs Trust But Verify - True Meaning Of Change
auto scroll beats size up size down change color hide chords drawings
tab show chords e-chords YouTube Clip e-chords hide all tabs e-chords go to top tab

share