Trevor Hall

The Fruitful Darkness

Trevor Hall

tabs

by  JOV-CORREA

save to print version add songbook text version e-mail correct tuner
chordsukulelecavacokeyboardtabbassdrumsharmonicaflute Guitar Pro
close

there isn't a video lesson for this song

chords

The Fruitful Darkness

	  		Intro 

e|--------------------|--------------------|--------------------|--------------------| 
B|-----0------0-------|-----0------0-------|-----0------0-------|-----0------0-------| 
G|---1--1-1-1--1-1----|---1--1-1-1--1-1----|---1--1-1-1--1-1----|---1--1-1-1--1-1----| 
D|--2-2------2--------|--2-2------2--------|--2-2------2--------|--2-2------2--------| 
A|-4-----4-4----4-----|-0-----0-0----0-----|--------------------|--------------------| 
E|--------------------|--------------------|-4-----4-4----4-----|-2-----2-2----2-----| 

Sometimes Trevor will switch out the hit on the B string for an Open high e. For example... 

e|------------0--------|--------------------|-----------0---------|------------------| 
B|-----0--------------|-----0------0-------|-----0--------------|-----0------0-------| 
G|---1--1-1-1--1-1----|---1--1-1-1--1-1----|---1--1-1-1--1-1----|---1--1-1-1--1-1----| 
D|--2-2------2--------|--2-2------2--------|--2-2------2--------|--2-2------2--------| 
A|-4-----4-4----4-----|-0-----0-0----0-----|--------------------|--------------------| 
E|--------------------|--------------------|-4-----4-4----4-----|-2-----2-2----2-----| 
		  

Full key step upFull key step up
Half key step upHalf key step up
Half key step downHalf key step down
Full key step downFull key step down
hide glossary

See also:

tabs Red Hot Chili Peppers - Under The Bridge (ver. 2) tabs Good Charlotte - Hold On tabs Ben Harper - Diamonds on inside tabs Good Charlotte - Predictable tabs Paramore - Misery Business tabs Red Hot Chili Peppers - Scar Tissue (ver. 4)
e-chords

Other versions:

tabs Trevor Hall - The Fruitful Darkness
auto scroll beats size up size down change color hide chords drawings
tab show chords e-chords YouTube Clip e-chords hide all tabs e-chords go to top tab

share with facebook