Treble Charger

Don't Believe It All

Treble Charger

tabs

by  LUNO

save to print version add songbook text version e-mail correct tuner
chordsukulelecavacokeyboardtabbassdrumsharmonicaflute Guitar Pro
close

there isn't a video lesson for this song

chords

Don't Believe It All

	  		Tabbed By: Albert Norman ([email protected]) 
  
Listen to the song for timing, times included are approximate. 
  
 
Dropped "D" Tuning 
  
E|----------------------------------------------------------------------| 
B|----------------------------------------------------------------------| 
G|----------------------------------------------------------------------| 
D|-6---6--------6--6---6------------------------------------------------| 
A|---9---9-7h9-------9---9-7h9-7----------------------------------------| 
D|----------------------------------------------------------------------| 
  
E|----------------------------------------------------------------------| 
B|------------9-------------9-----------10p9----------------------------| 
G|-9h11-9h11----9-9h11-9h11---9-9h11-11------11p9-11/13-9---------------| 
D|----------------------------------------------------------------------| 
A|----------------------------------------------------------------------| 
D|----------------------------------------------------------------------| 
  
E|----------------------------------------------------------------------| 
B|------------9-------------9-----------12p9----------------------------| 
G|-9h11-9h11----9-9h11-9h11---9-9h11-11------11p9-11/13-9---------------| 
D|----------------------------------------------------------------------| 
A|----------------------------------------------------------------------| 
D|----------------------------------------------------------------------| 
  
Verse: 
  
E|----------------------------------------------------------------------| 
B|----------------------------------------------------------------------| 
G|--------6-6-6--4-4-4-4---------6-6-6--4-4-4-4-------------------------| 
D|-7-7-7--6-6-6--4-4-4-4--7-7-7--6-6-6--4-4-4-4-------------------------| 
A|-7-7-7--4-4-4--2-2-2-2--7-7-7--4-4-4--2-2-2-2-------------------------| 
D|-7-7-7------------------7-7-7-----------------------------------------| 
  
  
  
Fill 1 (0:26, 0:38, 1:18, 1:30) 
  
E|-------------------| 
A|-10p9--------------| 
D|------11p9-9/11----| 
G|-------------------| 
B|-------------------| 
D|-------------------| 
  
 
Fill 2 (0:32, 1:24) 
  
E|-------------------| 
A|-------------------| 
D|-8h9-9h11-11/13----| 
G|-------------------| 
B|-------------------| 
D|-------------------| 
  
 
Pre-Chorus: 
                      |--------Palm Muted---------| 
E|----------------------------------------------------------------------| 
B|----------------------------------------------------------------------| 
G|-------------------------------------------4-4-4-4-4-4-4-4------------| 
D|-7-7-7-2--2-2--7-7-7-2--2-2--7-7-7--2-2-2--4-4-4-4-4-4-4-4------------| 
A|-7-7-7-2--2-2--7-7-7-2--2-2--7-7-7--2-2-2--2-2-2-2-2-2-2-2------------| 
D|-7-7-7-2--2-2--7-7-7-2--2-2--7-7-7--2-2-2-----------------------------| 
  
 
Chorus: 
  
(Repeat 3 Times) 
E|----------------------------------------------------------------------| 
B|----------------------------------------------------------------------| 
G|-----------------------4-4-4-4/6-6-6\4--------------------------------| 
D|-7-7-7-7-7--2-2-2-2-2--4-4-4-4/6-6-6\4--------------------------------| 
A|-7-7-7-7-7--2-2-2-2-2--2-2-2-2/4-4-4\2--------------------------------| 
D|-7-7-7-7-7--2-2-2-2-2-------------------------------------------------| 
  
  
  
Solo:(2:12) 
  
E|-12------------------------------------------11-14----9-12---------------| 
B|----12-12------------12-12-14-12----12----12-------12------12-9-9--------| 
G|-------13b-13b-13-14-------------14-------------------------------11-9---| 
D|-------------------------------------------------------------------------| 
A|-------------------------------------------------------------------------| 
D|-------------------------------------------------------------------------| 
  
E|-12------------------------------------------11-14----9-12---------------| 
B|----12-12------------12-12-14-12----12----12-------12------12-9-9--------| 
G|-------13b-13b-13-14-------------14-------------------------------11-9---| 
D|-------------------------------------------------------------------------| 
A|-------------------------------------------------------------------------| 
D|-------------------------------------------------------------------------| 
  
E|--------------------------------------------------------------| 
B|-------9------9--9h10-9---------------------------------------| 
G|--9h11---9h11-----------11-9-8-9-9/11-11-11-13p11-9-11-9------| 
D|--------------------------------------------------------------| 
A|--------------------------------------------------------------| 
D|--------------------------------------------------------------| 
  
E|--------------------------------------------------------------| 
B|--9h10-12-9h10-12--9-10-12-10-9-------------------------------| 
G|--------------------------------8-9-9/11-11-11-13p11-9-11-9v--| 
D|--------------------------------------------------------------| 
A|--------------------------------------------------------------| 
D|--------------------------------------------------------------| 
  
 
E|----------------------------------------------------------------------| 
B|------5h7v-----7p5v---------------------------------------------------| 
G|----------------------------------------------------------------------| 
D|-2-2--------2-2------7-7-7-7-7-7-7-7----------------------------------| 
A|-2-2--------2-2------7-7-7-7-7-7-7-7----------------------------------| 
D|-2-2--------2-2------7-7-7-7-7-7-7-7----------------------------------| 
  
E|----------------------------------------------------------------------| 
B|------5h7v-----7p5v---------------------------------------------------| 
G|--------------------------------------------------------4-4-4-4-4-4-4-| 
D|-2-2--------2-2------7-7-7-7-7-7-7-7---2-2-2-2-2-2-2-2--4-4-4-4-4-4-4-| 
A|-2-2--------2-2------7-7-7-7-7-7-7-7---2-2-2-2-2-2-2-2--2-2-2-2-2-2-2-| 
D|-2-2--------2-2------7-7-7-7-7-7-7-7---2-2-2-2-2-2-2-2----------------| 
  
  
  
(2:58) 
  
(Palm Muted) 4 Times 
E|----------------------------------------------------------------------| 
B|----------------------------------------------------------------------| 
G|-----------------------4-4-4-4-4--6-6-6-6-4---------------------------| 
D|-7-7-7-7-7--2-2-2-2-2--4-4-4-4-4--6-6-6-6-4---------------------------| 
A|-7-7-7-7-7--2-2-2-2-2--2-2-2-2-2--4-4-4-4-2---------------------------| 
D|-7-7-7-7-7--2-2-2-2-2-------------------------------------------------| 
  
  
  
End Solo: (3:46) 
  
E|-12------------------------------------------11-14----9-12---------------| 
B|----12-12------------12-12-14-12----12----12-------12------12-9-9--------| 
G|-------13b-13b-13-14-------------14-------------------------------11-9---| 
D|-------------------------------------------------------------------------| 
A|-------------------------------------------------------------------------| 
D|-------------------------------------------------------------------------| 
  
E|-12------------------------------------------11-14----9-12---------------| 
B|----12-12------------12-12-14-12----12----12-------12------12-9-9--------| 
G|-------13b-13b-13-14-------------14-------------------------------11-9---| 
D|-------------------------------------------------------------------------| 
A|-------------------------------------------------------------------------| 
D|-------------------------------------------------------------------------| 
  
E|-------------------------------------------------------------------------| 
B|------------------------12-------12-17-16-14----14-16----16h17p16-19-----| 
G|------------------11h13----13-11-------------16-------16-----------------| 
D|-9h11-11/13h14p13--------------------------------------------------------| 
A|-------------------------------------------------------------------------| 
D|-------------------------------------------------------------------------| 
                                        
E|-------------------------------------------------------------------------| 
A|-----------------------10p9----------------------------------------------| 
D|-13h14p13-16-13----16-------11p9-11/13-9--9h11-11\13-9--9h11-11-11/13v---| 
G|----------------16-------------------------------------------------------| 
B|-------------------------------------------------------------------------| 
D|-------------------------------------------------------------------------| 

		  

See also:

tabs Avril Lavigne - Too Much To Ask tabs Alanis Morissette - Unsent tabs Avril Lavigne - Don't Tell Me (intro) tabs Three Days Grace - Burn tabs Rush - Roll The Bones tabs Nickelback - Because of You
e-chords

Other versions:

tabs Treble Charger - Don't Believe It All
auto scroll beats size up size down change color hide chords drawings
tab show chords e-chords YouTube Clip e-chords hide all tabs e-chords go to top tab

share