Trazendo a Arca

home > Trazendo a Arca

Toque No Altar Tab

Trazendo a Arca

Difficulty: nolevelnolevel

by Acelot

tuner correct add songbook print version text version save to e-mail
chordsukulelecavacokeyboardtabbassdrumsharmonicsflute Guitar Pro
chords

Toque No Altar

(Davi Sacer/ Luiz Arcanjo)

  		  
Intro: E5 C5 G D5 (2x) 

e|----------------------------------------------------------------| 
B|-7-x-7-7-x-x-8-x-8-8-x-8-8-x-x-7-x-7-7-x-x-8-x-8-8-x-8-8-x-x-8--| 
G|-7-x-7-7-x-x-7-x-7-7-x-7-7-x-x-7-x-7-7-x-x-7-x-7-7-x-7-7-x-x-7--| 
D|----------------------------------------------------------------| 
A|----------------------------------------------------------------| 
E|----------------------------------------------------------------| 

e|-------------------------------------------------------------------| 
B|-x-8-8--x--8---8-8-x-8-8-x-x--10--x-10-10--x--10--x-10-10--x-10-10-| 
G|-x-7-7--x--7-x-7-7-x-7-7-x-x---7--x--7--7--x---7--x--7--7--x--7--7-| 
D|-------------------------------------------------------------------| 
A|-------------------------------------------------------------------| 
E|-------------------------------------------------------------------| (2x) 


Verso:  
e|---------3---0-----------3-X-0-----------------------------| 
B|---------3---3-----------3-X-3----3---3---3----------------| 
G|-----5---0---2-------5---0-X-2----2---2---2-------5----7---| 
D|-2---5---0---0---2---5---0-X-0--0---0---0---------5----7--2| 
A|-2---3-----------2---3-----X------------------3-3------5--2| 
E|-0-------3-------0-------3-X------------------------------0| 

Pré-Refrão:  

e|------------------------------------------------------------------| 
B|------------------------------------------------------------------| 
G|-----5--5-------7--7------2--2-----------------5--5------7--7-----| 
D|-----5--5-------7--7------2--2-------4--4------5--5------7--7---2-| 
A|-3-3------------------0-0-------2-2--2--2--3-3------------------2-| 
E|-----------/8-8-------------------------------------/8-8--------0-| 

Chorus:  

e|----0-----------0--| 
B|----3-----------3--| 
G|-2--2--4-----2--2--| 
D|-2--0--4--2--2--0--| 
A|-0-----2--2--0-----| 
E|----------0--------| 

Interlude: 

e|--------------------------------------------------------| 
B|--------------------------------------------------------| 
G|--------5--5----------7-7---------5--5----------7-7-----| 
D|--------5--5----------7-7---------5--5----------7-7---2-| 
A|-3--3-3--------------------3--3-3---------------------2-| 
E|--------------/8--8-8-------------------/8--8-8-------0-| 

Solo: 

e|------------------------------8---------------/11----------------/14-| 
B|---------------------------10---10---------10-----13----------13-----| 
G|-------------------7-8--11---------11-8-11-----------14-11-14--------| 
D|------------7-9-10---------------------------------------------------| 
A|-/7-9-10-11----------------------------------------------------------| 
E|---------------------------------------------------------------------| 

e|-14-14~-12-14-14b15-14-(15)r14p12-14/17--17p14---------------------| 
B|-----------------------------------------------15------------------| 
G|-------------------------------------------------14--12p11---------| 
D|----------------------------------------------------------12----10-| 
A|-------------------------------------------------------------12----| 
E|-------------------------------------------------------------------| 

e|-12----------------------------------12----------------15b17-17-15-| 
B|----15-12----------------15b17(15)17----15-12----------------------| 
G|----------15-14-12-14-------------------------15-14-12-------------| 
D|-------------------------------------------------------------------| 
A|-------------------------------------------------------------------| 
E|-------------------------------------------------------------------| 

e|-17b19-(19)19r17h15-17-15-------| 
B|--------------------------17~---| 
G|--------------------------------| 
D|--------------------------------| 
A|--------------------------------| 
E|--------------------------------| 

e|----------12----------12--------------------------| 
B|-------12----12-15b17----15-12--------------------| 
G|-14b16-------------------------15-14-12-----------| 
D|----------------------------------------14-12-14~-| 
A|--------------------------------------------------| 
E|--------------------------------------------------| 


Verso: 

e|-------------------------------------------------------------| 
B|-----------------2-2---------------2---2---2-----------------| 
G|-----------------3-3---------------3---3---3-------5-7-------| 
D|--2-2--5-5-------0-0--2-2--5-5-----0-0---0---------5-7-----2-| 
A|--2-2--3-3--5-5-------2-2--3-3--5------------3-3-3---5-2-2-2-| 
E|--0-0-------3-3-------0-0-------3----------------------0-0-0-| 

Pré-Refrão:  

e|------------------------------------------------------------------| 
B|------------------------------------------------------------------| 
G|-----5--5-------7--7------2--2-----------------5--5------7--7-----| 
D|-----5--5-------7--7------2--2-------4--4------5--5------7--7---2-| 
A|-3-3------------------0-0-------2-2--2--2--3-3------------------2-| 
E|-----------/8-8-------------------------------------/8-8--------0-| 

Chorus:  

e|----0-----------0--| 
B|----3-----------3--| 
G|-2--2--4-----2--2--| 
D|-2--0--4--2--2--0--| 
A|-0-----2--2--0-----| 
E|----------0--------| 

e|-----0--x--------------------------------------------------------| 
B|-----3--x--------------------------------------------------------| 
G|--2--2--x------5--5----7--7-------2--2-------4--4------------5-5-| 
D|--2--0--2------5--5----7--7-------2--2-------4--4------------5-5-| 
A|--0-----2--3-3-3--3---------x-0-0------x-2-2-2--2--3-3-3-3-3-3-3-| 
E|---------0-----------/8-----x------------------------------------| 

e|----------------0------------------------0------------0--| 
B|----------------0------------------------3------------3--| 
G|----------7-7---0---------------------2--2--4-4-x---2-2--| 
D|----------7-7---2---------------------2--0--4-4-x-2-2-0--| 
A|-5-5--5-5-5-5---2--/9--11--14--7-9-11-0-----2-2-x-2-0----| 
E|----------------0---------------------------------0------| 
	  

Full key step upFull key step up
Half key step upHalf key step up
Half key step downHalf key step down
Full key step downFull key step down
Search Paypal
auto scroll beats size up size down change color hide chords drawings
tab show chords e-chords YouTube Clip e-chords hide all tabs e-chords go to top tab