Trazendo a Arca

home > Trazendo a Arca

Introdução Na Corte Do Egito Tab

Trazendo a Arca

Difficulty: BeginnerBeginner

by Jonatas%5FBlack

tuner correct add songbook print version text version save to e-mail
chordsukulelecavacokeyboardtabbassdrumsharmonicsflute Guitar Pro
chords

Introdução Na Corte Do Egito

  		Intro - Na Corte do Egito 
Base = Dm7  Bb7+  Bm7/5-  Bb7+  C9  Dm7 (2x) 
  
E:---5-3-5----5-6-5-3-5----|Repete------------------------------------------ 
B:---------3------------3--|3X---------------------------------------------- 
G:-------------------------------------------------------------------------- 
D:-------------------------------------------------------------------------- 
A:-------------------------------------------------------------------------- 
E:-------------------------------------------------------------------------- 

E:------------5-5-3-5---5-3------------------------------------------------- 
B:---6-5-3-5----------------6-5-3------------------------------------------- 
G:-------------------------------------------------------------------------- 
D:-------------------------------------------------------------------------- 
A:-------------------------------------------------------------------------- 
E:-------------------------------------------------------------------------- 

E:---5-3-5----5-6-5-3-5----|Repete------------------------------------------ 
B:---------3------------3--|3X---------------------------------------------- 
G:-------------------------------------------------------------------------- 
D:-------------------------------------------------------------------------- 
A:-------------------------------------------------------------------------- 
E:-------------------------------------------------------------------------- 

E:------------6-5-3--------------------------------------------------------- 
B:---6-5-3-5--------6-5-3--------------------------------------------------- 
G:------------------------5-3-2 -------------------------------------------- 
D:-------------------------------------------------------------------------- 
A:-------------------------------------------------------------------------- 
E:-------------------------------------------------------------------------- 
	  

Full key step upFull key step up
Half key step upHalf key step up
Half key step downHalf key step down
Full key step downFull key step down
Search Paypal
auto scroll beats size up size down change color hide chords drawings
tab show chords e-chords YouTube Clip e-chords hide all tabs e-chords go to top tab