Trazendo a Arca

home > Trazendo a Arca

Celebrai Tab

Trazendo a Arca

Difficulty: nolevelnolevel

by Acelot

tuner correct add songbook print version text version save to e-mail
chordsukulelecavacokeyboardtabbassdrumsharmonicsflute Guitar Pro
chords

Celebrai

(Luiz Arcanjo)

  		
Intro:  

e|----------------------|--------------------|  
B|----------------------|--------------------|  
G|----------------------|--------------------|  
D|-2-2---5-5---7-x------|-2-2-x-5-5----------|  
A|-0-0---3-3---5-x--2-2-|-0-0-x-3-3--3-x-5-5-|  
E|---------------x--0-0-|------------1-x-3-3-|  

Riff:  

e|-5-5-5-5-8-8-8-10-10-10-10-10--12-12\|-5-5-5-5-8-8-8-----------------|  
B|-5-5-5-5-8-8-8-10-10-10-10-10--12-12\|-5-5-5-5-8-8-8-6-6-6-6-6-x-8-8-|  
G|-----------------------------------------------------5-5-5-5-5-x-7-7-|  
D|---------------------------------------------------------------------|  
A|---------------------------------------------------------------------|  
E|---------------------------------------------------------------------|  


Verse: A5 C5 D5 G5   

e|----------------------|--------------------------|  
B|----------------------|--------------------------|  
G|----------------------|--------------------------|  
D|-2-2---5-5---7--------|-2-2--5-5--7--------------|  
A|-0-0---3-3---5---5-5--|-0-0--3-3--5--5-5-5-5-5-5-|  
E|-----------------3-3--|--------------3-3-3-3-3-3-|  

Parte 2: D5 E5 F5 G5   

e|-----------------|------------------|-------------------|  
B|-----------------|------------------|-------------------|  
G|-----------------|------------------|-------------------|  
D|-7-7-7-7-7-7-7-7-|------------------|-------------------|  
A|-5-5-5-5-5-5-5-5-|--2-2-2-2-2-2-2-2-|-------------------|  
E|-5-5-5-5-5-5-5-5-|--0-0-0-0-0-0-0-0-|--/5-5--8--5-5/12/-|  

e|-----------------|-----------------|-0---|  
B|-----------------|-----------------|-2---|  
G|-----------------|-----------------|-3---|  
D|-----------------|-----------------|-0---|  
A|-3-3-3-3-3-3-3-3-|-5-5-5-5-5-5-5-5-|-0---|  
E|-1-1-1-1-1-1-1-1-|-3-3-3-3-3-3-3-3-|-----|  

Chorus: A5 C5 F5 D5 B5 G5  

e|---------------------|---------------------|-------------------|  
B|---------------------|---------------------|-------------------|  
G|---------------------|---------------------|-------------------|  
D|-2-2-x-5-5-----7-5-5-|-2-2-x-5-5-----5-4-4-|-2-2-x-5-5---------|  
A|-0-0-x-3-3--3--5-3-3-|-0-0-x-3-3--3--3-2-2-|-0-0-x-3-3--3--5-5-|  
E|------------1--------|------------1--------|------------1--3-3-|  

e|------|-0---|----------------|  
B|------|-2---|----------------|  
G|------|-3---|----------------|  
D|------|-0---|----------------|  
A|-3----|-0---|----------------|  
E|-1----|-----|-3-0--3-0--3--5-|  

Bridge:  

e|-----------------------------------------------------------|  
B|-----------------------------------------------------------|  
G|-----------------------------------------------------------|  
D|-----------------------------------------------------------|  
A|-------------------------3-5---------------------------5-7-|  
E|-3h5-5-5-5-5-3h5-5-5-5-5-------3h5-5-5-5-5-3h5-5-5-5-5-----|  

e|----------------------------------------------|  
B|----------------------------------------------|  
G|----------------------------------------------|  
D|--------------------------------------------5-|  
A|-------------------------3-5----------------5-|  
E|-3h5-5-5-5-5-3h5-5-5-5-5-------3h5-5-5-5-5--3-|  

e|-------------------------------------------------------------|  
B|-------------------------------------------------------------|  
G|-------------------------------------------------------------|  
D|-------------------------------------------------------------|  
A|-------------------------3-5---------------------------3/5-7-|  
E|-3h5-5-5-5-5-3h5-5-5-5-5-------3h5-5-5-5-5-3h5-5-5-5-5-------|  

e|----------------------------------------------|  
B|----------------------------------------------|  
G|----------------------------------------------|  
D|--------------------------------------------5-|  
A|-------------------------3-5----------------5-|  
E|-3h5-5-5-5-5-3h5-5-5-5-5-------3h5-5-5-5-5--3-|  

e|-----------------------------------------------------------|  
B|-----------------------------------------------------------|  
G|-----------------------------------------------------------|  
D|-----------------------------------------------------------|  
A|-------------------------3-5---------------------------5-7-|  
E|-3h5-5-5-5-5-3h5-5-5-5-5-------3h5-5-5-5-5-3h5-5-5-5-5-----|  

e|----------------------------------------------|  
B|----------------------------------------------|  
G|----------------------------------------------|  
D|--------------------------------------------5-|  
A|-------------------------3-5----------------5-|  
E|-3h5-5-5-5-5-3h5-5-5-5-5-------3h5-5-5-5-5--3-|  


e|------------------------------------------------------------------|  
B|------------------------------------------------------------------|  
G|------------------------------------------------------------------|  
D|------------------------------------------------------------------|  
A|-------------------------3-5---------------------------5-7\---3-5-|  
E|-3h5-5-5-5-5-3h5-5-5-5-5-------3h5-5-5-5-5-3h5-5-5-5-5--------1-3-|  

End:  


e|---------------------|---------------------|-------------------------|  
B|---------------------|---------------------|-------------------------|  
G|---------------------|---------------------|-------------------------|  
D|-2-2-x-5-5-----7-5-5-|-2-2-x-5-5-----5-4-4-|-2-2-x-5-5---------------|  
A|-0-0-x-3-3--3--5-3-3-|-0-0-x-3-3--3--3-2-2-|-0-0-x-3-3---------------|  
E|------------1--------|------------1--------|------------3-0-3-0-3--5-|  

	  

Full key step upFull key step up
Half key step upHalf key step up
Half key step downHalf key step down
Full key step downFull key step down
Search Paypal
auto scroll beats size up size down change color hide chords drawings
tab show chords e-chords YouTube Clip e-chords hide all tabs e-chords go to top tab