Transplants

Diamonds & Guns

Transplants

tabs

save to print version add songbook text version e-mail correct tuner
chordsukulelecavacokeyboardtabbassdrumsharmonicaflute Guitar Pro
close

there isn't a video lesson for this song

chords

Diamonds & Guns

	  		Intro 
 
~=bend 
 
e-------------------------- 
b-------------------------- 
g-6-6---------------------- 
d-6-6--6--99--------------- 
a-4-4--6--99--------------- 
e------4--77--------------- 
 
 
Verse 
e-------------------------- 
b-------------------------- 
g-66-66-66-66-------------- 
d-66-66-66-66-------------- 
a-44-44-44-44-------------- 
e-------------------------- 
 
 
 
 
e-------------------------- 
b-------------------------- 
g-------------------------- 
d--------------------------  x3 
a-------------------------- 
e-~3-~2-~3-~2-------------- 
 
 
Chorus 
e-------------------------- 
b-------------------------- 
g-6-6---------------------- 
d-6-6--6--99--------------- 
a-4-4--6--99--------------- 
e------4--77--------------- 
 
Verse 
e-------------------------- 
b-------------------------- 
g-66-66-66-66-------------- 
d-66-66-66-66-------------- 
a-44-44-44-44-------------- 
e-------------------------- 
 
e-------------------------- 
b-------------------------- 
g-------------------------- 
d--------------------------  x3 
a-------------------------- 
e-~3-~2-~3-~2-------------- 
 
 
Outro 
e-------------------------- 
b-------------------------- 
g-6-6---------------------- 
d-6-6--6--99--------------- 
a-4-4--6--99--------------- 
e------4--77--------------- 
 

		  

See also:

tabs Ramones - Blitzkrieg Bop tabs Goo Goo Dolls - Name tabs Green Day - Brain Stew tabs Goo Goo Dolls - Iris (Acoustic) tabs Green Day - Boulevard of brocken dreams tabs Green Day - Minority
e-chords

Other versions:

tabs Transplants - Diamonds & Guns
auto scroll beats size up size down change color hide chords drawings
tab show chords e-chords YouTube Clip e-chords hide all tabs e-chords go to top tab

share