Townes Van Zandt

Cocaine Blues

Townes Van Zandt

tabs Expert expert

save to print version add songbook text version e-mail correct tuner
chordsukulelecavacokeyboardtabbassdrumsharmonicaflute Guitar Pro
close

there isn't a video lesson for this song

chords

Cocaine Blues

	  		
to keep the bass notes soft. 
Standard tuning ,  
 
  
|----3---3-3-----|--0-------0-----|----------------| 
|1------1--------|------3-------1-|----------1-----| 
|----0-------0-h-|1---------------|-------02h----2-| 
|----------------|----2-------2---|----3-------3---| 
|3-------3-------|----------------|----------------| 
|----------------|0-------0-------|1-------1-------| 
  
|----------------|----------3-----|1-----0---------| 
|1-3---1---------|--------------0-|0---------3---1-| 
|----------2---0-|----0-------0---|0---------------| 
|----3-------3---|----------------|----0-------0---| 
|----------------|3-------3-------|----------------| 
|1-------1-------|----------------|3-------3-------| 
  
|--0-------------|--3---1---------| 
|------3---1---0-|----------0---1-| 
|----0-------0---|----------------| 
|----------------|----0-------0---| 
|3-------3-------|----------------| 
|----------------|3-------3-------| 
		  

See also:

tabs Theme Songs - Mario Bros. tabs Jim Croce - Time In A Bottle tabs Alan Jackson - Chattahoochee Correct tabs Lester Flatt - Dueling Banjos tabs Brandi Carlile - The Story (solo) tabs Jimmy Buffet - Margaritaville (lead parts)
e-chords

Other versions:

tabs Townes Van Zandt - Cocaine Blues tabs Johnny Cash - Cocaine Blues (live)
auto scroll beats size up size down change color hide chords drawings
tab show chords e-chords YouTube Clip e-chords hide all tabs e-chords go to top tab

share