Totenmond

Das Beil Und Der Vater

Totenmond

tabs

by  ADALGOMES

save to print version add songbook text version e-mail correct tuner
chordsukulelecavacokeyboardtabbassdrumsharmonicaflute Guitar Pro
close

there isn't a video lesson for this song

chords

Das Beil Und Der Vater

	  		

Gtr I (C F Bb Eb G C) - Das Beil und der Vater 

Intro Riff - Tremolo Picking 

||-------------------------------------------------------------------||-| 
||o-----------------------------------------------------------------o||-| 
||-------------------------------------------------------------------||-| 
||-------------------------------------------------------------------||-| 
||o-----------------------------------------------------------------o||-| 
||--0-0-0-0-0-0-0-0-3-3-3-3-3-3-3-3-2-2-2-2-2-2-2-2-5-5-5-5-5-5-5-5--||-| 

Main Riff 

||-----------------------------------||----| 
||o---------------------------------o||----| 
||-----------------------------------||----| 
||-----------------------------------||----| 
||o-2-2-2-2-5-5-5-5-4-4-4-4-7-7-7-7-o||----| 
||--0-0-0-0-3-3-3-3-2-2-2-2-5-5-5-5--||----| 

Verse Chords 


||-----------------------||----| 
||o---------------------o||----| 
||-----------------------||----| 
||--5----5----8----8--7--||----| 
||o-5----5----8----8--7-o||----| 
||--3----3----6----6--5--||----| 



|------| 
|------| 
|------| 
|-2----| 
|-2----| 
|-0----| 


Then play this for the "Chorus" 
|---------------------------------|-----------------------------------| 
|---------------------------------|-----------------------------------| 
|---------------------------------|-----------------------------------| 
|---------------------------------|-----------------------------------| 
|---------------------------------|-----------------------------------| 
|-2-2-2-2-2-2-2-2-2-2-2-2-2-2-2-2-|-4-4-4-4-4-4-4-4-5-5-5-5-5-5-5-5---| 


  S S S S S S S S S S S S S S S S   S S S S S S S S S S S S S S S S 
|---------------------------------|-----------------------------------| 
|---------------------------------|-----------------------------------| 
|---------------------------------|-----------------------------------| 
|---------------------------------|-----------------------------------| 
|-2-2-2-2-2-2-2-2-2-2-2-2-2-2-2-2-|-5-5-5-5-5-5-5-5-4-4-4-4-4-4-4-4---| 
|---------------------------------|-----------------------------------| 

And like this when the blastbeats come in 

||--------------------------------------------------------------------| 
||o-------------------------------------------------------------------| 
||--------------------------------------------------------------------| 
||--------------------------------------------------------------------| 
||o-------------------------------------------------------------------| 
||--0-0-0-0-0-0-0-0-0-0-0-0-0-0-0-0-2-2-2-2-2-2-2-2-3-3-3-3-3-3-3-3---| 


|------------------------------------------------------------------||---| 
|-----------------------------------------------------------------o||---| 
|------------------------------------------------------------------||---| 
|------------------------------------------------------------------||---| 
|-0-0-0-0-0-0-0-0-0-0-0-0-0-0-0-0-3-3-3-3-3-3-3-3-2-2-2-2-2-2-2-2-o||---| 
|------------------------------------------------------------------||---| 

Powerchord version of the tremolo riff 
||----------------------|--------------------------| 
||o---------------------|--------------------------| 
||----------------------|--------------------------| 
||----------------------|--------------------------| 
||o-2-2-2-2-----2-2-2-2-|-----4-4-4-4-----5-5-5-5--| 
||--0-0-0-0-----0-0-0-0-|-----2-2-2-2-----3-3-3-3--| 


|-----------------|--------------------------||--| 
|-----------------|-------------------------o||--| 
|-----------------|--------------------------||--| 
|-2-2-2-2-2-2-2-2-|-----5-5-5-5-----4-4-4-4--||--| 
|-0-0-0-0-0-0-0-0-|-----3-3-3-3-----2-2-2-2-o||--| 
|-----------------|--------------------------||--| 


|------| 
|------| 
|------| 
|-2----| 
|-2----| 
|-0----| 

Bridge 
|-----------------------------------------------------------| 
|-----------------------------------------------------------| 
|-----------------------------------------------------------| 
|-----------------------------------------------------------| 
|-2--4-----4---4---4---2--4--2--4--2--4--4--4--5---6---7----| 
|-0--2-----2---2---2---0--2--0--2--0--2--2--2--3-0-4-0-5----| 

Then go back to Chorus 

Ending 
|-----------------------------------------------------------| 
|-----------------------------------------------------------| 
|-----------------------------------------------------------| 
|-----------------------------------------------------------| 
|-222222222222222222222222-4--4-4-4-4-----------------------| 
|-000000000000000000000000-2--2-2-2-2-----------------------| 

*************************************************************************************** 
* Generated using Power Tab Editor by Brad Larsen - http://powertab.guitarnetwork.org * 
*************************************************************************************** 
		  

Full key step upFull key step up
Half key step upHalf key step up
Half key step downHalf key step down
Full key step downFull key step down
hide glossary

See also:

tabs Drivin' N' Cryin' - Honeysuckle Blue tabs Ira! - Envelheço na Cidade tabs Deep Purple - Highway Star tabs Albert Hammond Jr - St. Justice tabs Ira! - Prisão das Ruas tabs Deep Purple - Sometimes a Feel Like Screaming
e-chords

Other versions:

tabs Totenmond - Das Beil Und Der Vater
auto scroll beats size up size down change color hide chords drawings
tab show chords e-chords YouTube Clip e-chords hide all tabs e-chords go to top tab

share