Toquinho

home > Toquinho

Abril En Portugal Tab

Toquinho

Difficulty: BeginnerBeginner

by TEIVI27

tuner correct add songbook print version text version save to e-mail
chordsukulelecavacokeyboardtabbassdrumsharmonicsflute Guitar Pro
chords

Abril En Portugal

  		------------5----5-5-5------4-----------3-------3-3-3-------2----------1------1-1-1------0-------------------------------------------------------------------- 
----------5-----------------------------5----------------------------------3-------------------------------------1-0-----3-3---------------------------------------- 
-------------------------------------------------------------------------------------------------------------------------------------------------------------------------- 
-------------------------------------------------------------------------------------------------------------------------------------------------------------------------- 
-------------------------------------------------------------------------------------------------------------------------------------------------------------------------- 
-------------------------------------------------------------------------------------------------------------------------------------------------------------------------- 


----------4-----4-4-4-------1-------1-0-----0-0-0---------1-0---1-0---1-0-----------5-----7-----9----------------------------------------------------------- 
-------5-------------------------------------------------3-------------------------------------------------------------------------------------------------------------- 
-------------------------------------------------------------------------------------------------------------------------------------------------------------------------- 
-------------------------------------------------------------------------------------------------------------------------------------------------------------------------- 
-------------------------------------------------------------------------------------------------------------------------------------------------------------------------- 
-------------------------------------------------------------------------------------------------------------------------------------------------------------------------- 

------------5----5-5-5------4-----------3-------3-3-3-------2----------1------1-1-1------0-------------------------------------------------------------------- 
----------5-----------------------------5----------------------------------3-------------------------------------1-0-----3-3---------------------------------------- 
-------------------------------------------------------------------------------------------------------------------------------------------------------------------------- 
-------------------------------------------------------------------------------------------------------------------------------------------------------------------------- 
-------------------------------------------------------------------------------------------------------------------------------------------------------------------------- 
-------------------------------------------------------------------------------------------------------------------------------------------------------------------------- 

----------4-----4-4-4-------1-------1-0-----0-0-0---------1-0---1-0---1-0-----------5-----7-----9----------------------------------------------------------- 
-------5-------------------------------------------------3-------------------------------------------------------------------------------------------------------------- 
-------------------------------------------------------------------------------------------------------------------------------------------------------------------------- 
-------------------------------------------------------------------------------------------------------------------------------------------------------------------------- 
-------------------------------------------------------------------------------------------------------------------------------------------------------------------------- 
-------------------------------------------------------------------------------------------------------------------------------------------------------------------------- 

estribillo: 
-----------------------------------------------------------------------------------------------------------------4--------7----9----7----7----5----9----5------------ 
----7--5-------------------5--7-------7--5----------------------7--------7--5----------------------5-----------------------------------------------------5--------- 
----------------------6----------------------------------4-----7---------------------------------6---------------------------------------------------------------------- 
----------------7---------------------------------6----------------------------------------7----------------------------------------------------------------------------- 
--------------------------------------------------------------------------------------------------------------------------------------------------------------------------- 
--------------------------------------------------------------------------------------------------------------------------------------------------------------------------- 

-----------------------------------------------------------------------------------------------------------------4--------7----9----7------5----9------------------- 
----7--5-------------------5--7-------7--5----------------------7--------7--5----------------------5--------------------------------------------------------------- 
----------------------6----------------------------------4-----7---------------------------------6---------------------------------------------------------------------- 
----------------7---------------------------------6----------------------------------------7----------------------------------------------------------------------------- 
--------------------------------------------------------------------------------------------------------------------------------------------------------------------------- 
-------------------------------------------------------------------------------------------------------------------------------------------------------------------------- 
	  

Search Paypal
auto scroll beats size up size down change color hide chords drawings
tab show chords e-chords YouTube Clip e-chords hide all tabs e-chords go to top tab