Topher Mohr

Garage

Topher Mohr

tabs

by  EDUCASTILHO

save to print version add songbook text version e-mail correct tuner
chordsukulelecavacokeyboardtabbassdrumsharmonicaflute Guitar Pro
close

there isn't a video lesson for this song

chords

Garage

	  		

 (x3) 
e|--------------------------------------------------| 
B|--------------------------------------------------| 
G|--------------------------------------------------| 
D|--5---------------------5-------------------------| 
A|-----7--5h7p5---7p5--------7--5h7p5---------------| 
E|--------------7-----7----------------3b--3--------| 

e|--------------------------------------------------| 
B|--------------------------------------------------| 
G|--------------------------------------------------| 
D|--5-----------------------5-----------------------| 
A|-----7--5h7p5---7p5---------7---5h7p5-------------| 
E|--------------7-----7-----------------3b--3-------| 



 (x2) 
e|--------------------------------------------------------| 
B|--------------------------------------------------------| 
G|--------------------------------------------------------| 
D|------------------------5h7------------------------5----| 
A|--0---0---0-3-5--5/7--7--------0---0---0-3-5--5/7-------| 
E|--------------------------------------------------------| 

e|--------------------------------------------------------| 
B|--------------------------------------------------------| 
G|--------------------------------------------------------| 
D|------------------------5h7-----------------------------| 
A|--0---0---0-3-5--5/7--7--------0---0---0-3-5--5/7---7---| 
E|--------------------------------------------------------| 



 (x2) 
e|--------------------------------------------------| 
B|--------------------------------------------------| 
G|--------------------------------------------------| 
D|--5---------------------5-------------------------| 
A|-----7--5h7p5---7p5--------7--5h7p5---------------| 
E|--------------7-----7----------------3b--3--------| 

e|--------------------------------------------------| 
B|--------------------------------------------------| 
G|--------------------------------------------------| 
D|--5-----------------------5-----------------------| 
A|-----7--5h7p5---7p5---------7---5h7p5-------------| 
E|--------------7-----7-----------------3b--3-------| 


  
e|-------------------------------------------------------------------------| 
B|-------------------------------------------------------------------------| 
G|-------------------------------------------------------------------------| 
D|-------------------------------------------------------------------------| 
A|--0---0---0---0h3---0---0---0---0h3---0---0---0---0h3---0---0---0---0----| 
E|----------------------------------------------------------------------3--| 

e|-----------------------------------------------------------------------------------| 
B|-----------------------------------------------------------------------------------| 
G|-----------------------------------------------------------------------------------| 
D|-----------------------------------------------------------------------------------| 
A|--0---0---0---0h3---0---0---0---0h3---0---0---0---0h3---0--0--0--0--2--2--2--2-----| 
E|-----------------------------------------------------------------------------------| 


 (x4) 
e|--------------------------------------------------| 
B|--------------------------------------------------| 
G|--------------------------------------------------| 
D|--5---------------------5-------------------------| 
A|-----7--5h7p5---7p5--------7--5h7p5---------------| 
E|--------------7-----7----------------3b--3--------| 

e|--------------------------------------------------| 
B|--------------------------------------------------| 
G|--------------------------------------------------| 
D|--5-----------------------5-----------------------| 
A|-----7--5h7p5---7p5---------7---5h7p5-------------| 
E|--------------7-----7-----------------3b--3-------| 


 (x2) 
e|--------------------------------------------------------| 
B|--------------------------------------------------------| 
G|--------------------------------------------------------| 
D|------------------------5h7------------------------5----| 
A|--0---0---0-3-5--5/7--7--------0---0---0-3-5--5/7-------| 
E|--------------------------------------------------------| 

e|--------------------------------------------------------| 
B|--------------------------------------------------------| 
G|--------------------------------------------------------| 
D|------------------------5h7-----------------------------| 
A|--0---0---0-3-5--5/7--7--------0---0---0-3-5--5/7---7---| 
E|--------------------------------------------------------|  
		  

See also:

tabs Ira! - Envelheço na Cidade tabs Deep Purple - Smoke On Water tabs Ira! - Inundação de Amor tabs Deep Purple - Stormbringer tabs Deep Purple - Money Talks tabs Ira! - A vida por um fio
e-chords

Other versions:

tabs Topher Mohr - Garage
auto scroll beats size up size down change color hide chords drawings
tab show chords e-chords YouTube Clip e-chords hide all tabs e-chords go to top tab

share