Tonight Alive

Thank You And Goodnight

Tonight Alive

tabs

by  VICTBORGES

save to print version add songbook text version e-mail correct tuner
chordsukulelecavacokeyboardtabbassdrumsharmonicaflute Guitar Pro
close

there isn't a video lesson for this song

chords

Thank You And Goodnight

	  		 

Intro -  
|-----------------|-------|----|----------------|-------| 
|-----------------|-------|----|----------------|-------| 
|----------4~--2~-|-2--2~-|----|----------6~--2-|-2~-2~-| 
|-2-2-2-2--4~--2~-|-2~-2~-|----|-2-2-2-2--6~--2-|-2~-2~-| 
|-2-2-2-2--2~--0~-|-0~-0~-|----|-2-2-2-2--4~--0-|-0~-0~-| 
|-0-0-0-0---------|-------|----|-0-0-0-0--------|-------| 

Verse - *Palm Muted* 
|--------|----------|--------|--------|--------|----------|--------|-------| 
|--------|----------|--------|--------|--------|----------|--------|-------| 
|--------|----------|--------|--------|--------|----------|--------|-------| 
|-9--x16-|--11--x16-|-6--x16-|-7--x16-|-9--x16-|--11--x16-|-6--x16-|-7--x8-| 
|-7------|--9-------|-4------|-5------|-7------|--9-------|-4------|-5-----| 
|--------|----------|--------|--------|--------|----------|--------|-------| 

Chorus - *A little tricky at first, but just listen to the song to get right* 
|---------|----------|---------|----------|---------|---------|-----------|----------| 
|---------|----------|---------|----------|---------|---------|-----------|----------| 
|---------|----------|---------|----------|---------|---------|-----------|-4--44-44-| 
|-2-22-22-|-222--222-|-6-66-66-|-666--666-|-2-22-22-|-222-222-|-2--22--22-|-4--44-44-| 
|-2-22-22-|-222--222-|-6-66-66-|-666--666-|-2-22-22-|-222-222-|-2--22--22-|-2--22-22-| 
|-0-00-00-|-000--000-|-4-44-44-|-444--444-|-0-00-00-|-000-000-|-0--00--00-|----------| 

|---------|----------|---------|----------|---------|---------|------------| 
|---------|----------|---------|----------|---------|---------|------------| 
|---------|----------|---------|----------|---------|---------|------------| 
|-2-22-22-|-222--222-|-6-66-66-|-666--666-|-2-22-22-|-222-222-|-2--2--4--4-| 
|-2-22-22-|-222--222-|-6-66-66-|-666--666-|-2-22-22-|-222-222-|-2--2--4--4-| 
|-0-00-00-|-000--000-|-4-44-44-|-444--444-|-0-00-00-|-000-000-|-0--0--2--2-| 

Repeat Intro | Repeat Verse | Repeat Chorus 
Bridge - *Again, listen to get timing right*  
|--------|--------|--------|-------| |---------|---------|---------|---------| - 
|--------|--------|--------|-------| |---------|---------|---------|---------|  | 
|--------|-6-6-6~-|-4-4-4~-|-4-4-4~| |---------|-6-6666~-|-4-4444~-|-4-4444~-|  | 
|-7-7-7~-|-6-6-6~-|-4-4-4~-|-4-4-4~| |-7-7777~-|-6-6666~-}-4-4444~-|-4-4444~-|  | 2x 
|-7-7-7~-|-4-4-4~-|-2-2-2~-|-2-2-2~| |-7-7777~-|-4-4444~-|-2-2222~-|-2-2222~-|  | 
|-5-5-5~-|--------|--------|-------| |-5-5555~-|---------|---------|---------| - 

Chorus 2 - 
|--------|---------|--------|------------| 
|-9-=x16-|-11--x16-|--------|------------| 
|--------|---------|--------|------------| 
|--------|---------|--------|-2--2--4--4-| 
|--------|---------|--------|-2--2--4--4-| 
|--------|---------|-5--x16-|-0--0--2--2-| 

|---------|----------|---------|----------|---------|---------|------------| 
|---------|----------|---------|----------|---------|---------|------------| 
|---------|----------|---------|----------|---------|---------|------------| 
|-2-22-22-|-222--222-|-6-66-66-|-666--666-|-2-22-22-|-222-222-|-2--2--4--4-| 
|-2-22-22-|-222--222-|-6-66-66-|-666--666-|-2-22-22-|-222-222-|-2--2--4--4-| 
|-0-00-00-|-000--000-|-4-44-44-|-444--444-|-0-00-00-|-000-000-|-0--0--2--2-| 

Repeat Chorus | Repeat Intro 
		  

auto scroll beats size up size down change color hide chords drawings
tab show chords e-chords YouTube Clip e-chords hide all tabs e-chords go to top tab

share