Tonight Alive

Dont Wish (acoustic)

Tonight Alive

tabs

by  BOMBAXXX

save to print version add songbook text version e-mail correct tuner
chordsukulelecavacokeyboardtabbassdrumsharmonicaflute Guitar Pro
close

there isn't a video lesson for this song

chords

Dont Wish (acoustic)

	  		
E-mail: 

Tuning: Drop C (CGCFAD) 


Intro (0:03) 
D|---------------------------------------------------------------------------| 
A|---------------------------------------------------------------------------| 
F|--5-----------4-----2----2--2-----5-----------4-----2----------------------| 
C|--5-----5-----5-----0----5--4-----5-----5-----5-----0----------------------| 
G|--3-----2-----5-----0----0--0-----3-----2-----5-----0----------------------| 
C|--x-----2-----5-----0----0--0-----x-----2-----5-----0----------------------| 


verse 1 (0:23) 
D|---------------------------------------------------------------------------| x2 
A|---------------------------------------------------------------------------| 
F|------------------5-----2--------------------------------------------------| 
C|--2-----4---5-----5-----0--------------------------------------------------| 
G|--2-----4---5-----3-----0--------------------------------------------------| 
C|--2-----4---5-----x-----0--------------------------------------------------| 


Chorus (0:41) 
D|---------------------------------------------------------------------------| 
A|---------------------------------------------------------------------------| 
F|--5-----------4-----2----2--2-----5-----------4-----2-----5~---------------| 
C|--5-----5-----5-----0----5--4-----5-----5-----5-----0-----5~---------------| 
G|--3-----2-----5-----0----0--0-----3-----2-----5-----0-----3~---------------| 
C|--x-----2-----5-----0----0--0-----x-----2-----5-----0-----x~---------------| 


verse 2 (1:03) 
D|---------------------------------------------------------------------------| 
A|---------------------------------------------------------------------------| 
F|--5-----7-----5-----5-----7----7-------------------------------------------| 
C|--5-----7-----5-----5-----7----7-------------------------------------------| 
G|--7-----5-----3-----7-----5----5-------------------------------------------| 
C|--x-----x-----x-----x-----x----0-------------------------------------------| 


Chorus (1:20) 
D|---------------------------------------------------------------------------| 
A|---------------------------------------------------------------------------| 
F|--5-----------4-----2----2--2-----5-----------4-----2----2--2--------------| 
C|--5-----5-----5-----0----5--4-----5-----5-----5-----0----5--4--------------| 
G|--3-----2-----5-----0----0--0-----3-----2-----5-----0----0--0--------------| 
C|--x-----2-----5-----0----0--0-----x-----2-----5-----0----0--0--------------| 


Bridge (1:40) 
D|---------------------------------------------------------------------------| 
A|---------------------------------------------------------------------------| 
F|--------5-----7-----------5-----7-----5-----7-----------4-----x------------| 
C|--2-----5-----7-----2-----5-----7-----5-----7-----2-----4-----x------------| 
G|--2-----3-----5-----2-----3-----5-----3-----5-----2-----2-----x------------| 
C|--2-----x-----x-----2-----x-----x-----x-----x-----2-----x-----x------------| 


Solo (2:08) 
D|---------------------------------------------------------------------------| 
A|---------------------------------------------------------------------------| 
F|--5-----------------4-----5-----------------4------------------------------| 
C|--5-----0-----5-----4-----5-----0-----2-----4------------------------------| 
G|--3-----0-----2-----2-----3-----0-----2-----2------------------------------| 
C|--x-----0-----2-----x-----x-----0-----2-----x------------------------------| 


Chorus (2:28)                    (2:37) 
D|---------------------------------------------------------------------------| 
A|---------------------------------------------------------------------------| 
F|--5-----------4-----2----------5-----------4-----2-----2--2----------------| 
C|--5-----5-----5-----0----------5-----5-----5-----0-----5--4----------------| 
G|--3-----2-----5-----0----------3-----2-----5-----0-----0--0----------------| 
C|--x-----2-----5-----0----------x-----2-----5-----0-----0--0----------------| 


Outro (2:47) 
D|---------------------------------------------------------------------------|  
A|---------------------------------------------------------------------------| 
F|--5-----------4-----2-----2--2-----5-----------4-----2---------------------| 
C|--5-----5-----5-----0-----5--4-----5-----5-----5-----0---------------------| 
G|--3-----2-----5-----0-----0--0-----3-----2-----5-----0---------------------| 
C|--x-----2-----5-----0-----0--0-----x-----2-----5-----0---------------------| 


------------------------- 
		  

Full key step upFull key step up
Half key step upHalf key step up
Half key step downHalf key step down
Full key step downFull key step down
hide glossary

See also:

tabs Silverchair - Shade tabs Tame Impala - Alter Ego tabs Tame Impala - Island Walking tabs Tonight Alive - Lonely Girl tabs Silverchair - The Door tabs The Rubens - I'll Surely Die
e-chords

Other versions:

tabs Tonight Alive - Dont Wish (acoustic)
auto scroll beats size up size down change color hide chords drawings
tab show chords e-chords YouTube Clip e-chords hide all tabs e-chords go to top tab

share