Tommy Emmanuel

Sukiyaki

Tommy Emmanuel

tabs

by  RENEJUNIOR

save to print version add songbook text version e-mail correct tuner
chordsukulelecavacokeyboardtabbassdrumsharmonicaflute Guitar Pro
close

there isn't a video lesson for this song

chords

Sukiyaki

	  		
    C                  F        C                 F 
e:-------------0----|--------|------------0----|--------| 
B:-----1--1--3---1--|--------|----1--1--3---1--|--------| 
G:------------------|--2--0--|-----------------|--2--0--| 
D:-----2------------|--3-----|----2------------|--3-----| 
A:--3----------3----|--------|--3---------3----|--------| 
E:--------3---------|--1-----|-------3---------|--1-----| 

    C              Em          Dm                 
e:--------------|--0--0--3--|--5--5---5-------| 
B:-----1--1--3--|--0--------|--5-----8-8-5----| 
G:--------------|--0--------|--7-----------7--| 
D:-----2--------|--2--------|--7--------------| 
A:--3-----------|--2--------|--5--------------| 
E:--------3-----|--0--------|-----------------| 

    Am         Dm7                     C      Eaug   
e:-----------|----------------------|--0----------0----| 
B:----1-1----|--3---1h3--3--3--1h3--|--1-------1h3--1--| 
G:----2---2--|--2-------------------|--0------1--------| 
D:----2------|--3-------------------|--2---0h2---------| 
A:--0--------|----------------------|--3---------------| 
E:-----------|--1-------------------|------------------| 

____________________________________________________ 
1.    C                                             | 
e:------------/5--3--0-------------|---------------|| 
B:-----1--1------------1-------1---|--0h1-0----0---|| 
G:------------/5--4----2--2----0---|--0h2-0--2-0--o|| 
D:-----2------------------3----2---|---------3----o|| 
A:--3------------------------3-----|---------------|| 
E:--------3------------------------|---------------|| 

________________________________________________ 
2.    C                         C     C7 
e:------------/5--3--0-------|------------0----| 
B:-----1--1------------1-----|---1--0---1---1--| 
G:------------/5--4----2--2--|--------3--------| 
D:-----2------------------3--|---2-------------| 
A:--3------------------------|--3-----3--------| 
E:--------3------------------|-----------------| 

    F             Dm7        Cmaj7  C9      
e:----1--1--3--|---5---5--|--3------3---------| 
B:----1--------|-----5----|--5------3---------| 
G:----2--------|----------|--4------3---------| 
D:----3--------|---7------|--5------5---------| 
A:----3--------|---5------|--3------3---------| 
E:--1----------|----------|------------6-5-3--| 

    Fm7            C#maj7    C           G   G7b9 
e:----1--1--3--|---4---4--|--3--0-----|-------------| 
B:----1--------|---6--5---|--1-----1--|--3-------0--| 
G:----1--------|---5------|--0--------|--0------1---| 
D:----1--------|---67-----|--2--------|--0-----3----| 
A:----3--------|---45-----|--3--------|--2----2-----| 
E:--1----------|----------|-----------|--3---3------| 

    C                  F        C                 F 
e:-------------0----|--------|------------0----|--------| 
B:-----1--1--3---1--|--------|----1--1--3---1--|--------| 
G:------------------|--2--0--|-----------------|--2--0--| 
D:-----2------------|--3-----|----2------------|--3-----| 
A:--3----------3----|--------|--3---------3----|--------| 
E:--------3---------|--1-----|-------3---------|--1-----| 

    C 
e:------------/5--3--0-------| 
B:-----1--1------------1-----| 
G:------------/5--4----2--2--|  3x  
D:-----2------------------3--| 
A:--3------------------------| 
E:--------3------------------| 

                         Cmaj7  
e:--8-8-8-8--5-5--3-3--------0---| 
B:--8-8-8-8--5-5--3-3-------0----| 
G:-------------------------0-----|  
D:------------------------2------| 
A:-----------------------3-------| 
E:-------------------------------| 
		  

Full key step upFull key step up
Half key step upHalf key step up
Half key step downHalf key step down
Full key step downFull key step down
hide glossary

See also:

tabs Panic! At The Disco - Build God Then We'll Talk tabs Panic! At The Disco - This Is Halloween tabs Johan Sebastian Bach - Gavote II tabs India Arie - Get it together tabs Eric Johnson - Cliffs of Dover tabs Colbie Caillat - Bubbly
e-chords

Other versions:

tabs Tommy Emmanuel - Sukiyaki
auto scroll beats size up size down change color hide chords drawings
tab show chords e-chords YouTube Clip e-chords hide all tabs e-chords go to top tab

share