Tommy Emmanuel

Purple Haze Reddit

Tommy Emmanuel

tabs Expert expert

by  EDUCASTILHO

save to print version add songbook text version e-mail correct tuner
chordsukulelecavacokeyboardtabbassdrumsharmonicaflute Guitar Pro
close

there isn't a video lesson for this song

chords

Purple Haze Reddit

	  		



e|-0-0-0-0-0-0--0--0--0--0---0---0---0---0---0---0---0----0-------------------------------| 
B|-0-0-0-0-0-0--0--0--0--0---3---3---3---3---3---3---3----3----4--4--4--4--4--4--4--4--4--| 
G|-1-1-1-1-1-1--1--1--1--1---1---1---1---1---1---1---1----1----2--2--2--2--2--2--2--2--2--| 
D|-2-2-2-2-2-2--2--2--2--2---0---0---0---0---0---0---0----0----1--1--1--1--1--1--1--1--1--| 
A|-2-2-2-2-2-2--2--2--2--2---2---2---2---2---2---2---2----2-------------------------------| 
E|-0-0-0-0-0-0--0--0--0--0---0---0---0---0---0---0---0----0---------------2-----------2---| 


e|---------------------0---------------------------0-0-0------------------------------0-0-| 
B|-4--4--4--4--4--4--4-0------8---------1/3--0-2-0-0-0-0-----8---------1/3--0-2-0-----0-0-| 
G|-2--2--2--2--2--2--2-1----7-----------2/4--0-1-0-1-1-1----7----------2/4--0-1-0-----1-1-| 
D|-1--1--1--1--1--1--1-2--/9----7------------------0-0-0--/9---7------------------2p0-0-0-| 
A|---------------------2---------------------------2-2-2------------------------------2-2-| 
E|---------------------0----------0-0-0------------0-0-0---------0-0-0----------------0-0-| 



e|----------------------------------0-----------------------------------0-0-0-0-0-0-------| 
B|----8---------1/3--0-2-0----------0-----8---------1/3--0-2-0----------0-0-0-0-0-0-0-0-0-| 
G|---7----------2/4--0-1-0----------1----7----------2/4--0-1-0----------1-1-1-2-2-2-4-4-4-| 
D|-/9---7------------------2p0------2--/9---7------------------2p0------0-0-0-2-2-2-4-4-4-| 
A|-----------------------------2p0--0------------------------------2p0--2-2-2-0-0-0-------| 
E|--------0-0-0---------------------0---------0-0-0---------------------0-0-0-------------| 



e|----3p0-----------------------------3-3---------------------------3-3---------------------| 
B|-0------3p0-------------------------5-5----3p0--3-0---------------5-5----3-0-3-3-3-3------| 
G|-4----------2p0-----2p0-------------------------2-0-2/4-2p0---0----------2-0-2-2-0-2p0-0--| 
D|-4--------------2p0-----2p0---------------------------------2-------------------------2---| 
A|----------------------------2b------------------------------------------------------------| 
E|-------------------------------3p0--------------------------------------------------------| 


e|--3-3---------------------------3-3------------------------7b-7b---5-3-5-5-4/7b---------| 
B|--5-5---------------------------5-5----3-0-3-3-3-3---------8b-8b---5-5-5-5-5/8b---------| 
G|---------3p0--3-0----------------------2-0-2-2-0-2p0---0---------------------------/0---| 
D|--------------2-0-2/4-2p0---0------------------------2----------------------------/0----| 
A|--------------------------2------------------------------------------------------/0-----| 
E|--------------------------------------------------------------------------------/0------| 
		  

See also:

tabs Panic! At The Disco - Build God Then We'll Talk tabs Panic! At The Disco - This Is Halloween tabs Johan Sebastian Bach - Gavote II tabs India Arie - Get it together tabs Eric Johnson - Cliffs of Dover tabs Colbie Caillat - Bubbly
e-chords

Other versions:

tabs Tommy Emmanuel - Purple Haze Reddit
auto scroll beats size up size down change color hide chords drawings
tab show chords e-chords YouTube Clip e-chords hide all tabs e-chords go to top tab

share