Tom Jobim

Garota de Ipanema

Tom Jobim

tabs

by  DUDUNEGRO

save to print version add songbook text version e-mail correct tuner
chordsukulelecavacokeyboardtabbassdrumsharmonicaflute Guitar Pro
close

there isn't a video lesson for this song

chords

Garota de Ipanema

Year: 2006 - Album: The Unknown

	  		           ESTA PARTE REPETE 2 VEZES  
e----------------------------------------------------------------------------------------------- 
B-8-8--------8-8--------8-8---------8-8--------------------------------------------------------- 
G----9-9-9-7----9-9-9-7-----9-9-9-7-----9-9-9-7-10-10-7-7-7----9-9-9---------------------------- 
D-----------------------------------------------------------10------10-10-10-10-7-10------------ 
A-----------------------------------------------------------------------------------------------
E----------------------------------------------------------------------------------------------- 
       
          DEPOIS CONTINUA NESTA  


e-------------------------------------------------------5-6-8--------------4-5-6------------------ 
B----6-7-6----6-------4-5-4---4-------5-6-5---5---------------------5-6-8----------------5-6-7-8-- 
G----------8----8-6-8-------7---7-5-7-------8---8-6-8----------5-7------------------5-7----------- 
D---------------------------------------------------------------------------------8--------------- 
A------------------------------------------------------------------------------------------------- 
E------------------------------------------------------------------------------------------------- 
                                         

          SOLO FINAL :      

e-----------------------------------------------------------------------7-7---------------------- 
B--8-8----------8-8---------8-8---------8-8----------10-10--------------------------------------- 
G-------9-9-9-7-----9-9-9-7-----9-9-9-7------9-9-9-7--------10-10-10-10------9-9-9-7-9--9-9-9-7-9 
D------------------------------------------------------------------------------------------------ 
A------------------------------------------------------------------------------------------------ 
E------------------------------------------------------------------------------------------------ 
		  

See also:

tabs Vinícius de Moraes - Pela Luz dos Olhos Teus tabs Waldir Azevedo - Pedacinhos do Céu tabs Marisa Monte - Amor I love you tabs Guinga - Baião De Lacan tabs Tom Jobim - Luiza tabs Chico Buarque - João e Maria
e-chords

Other versions:

tabs Tom Jobim - Garota de Ipanema tabs Tom Jobim - Garota De Ipanema (solo)
auto scroll beats size up size down change color hide chords drawings
tab show chords e-chords YouTube Clip e-chords hide all tabs e-chords go to top tab

share