Tokio Hotel

Screamin'

Tokio Hotel

tabs Advanced advanced

by  BRUNBLAZKOWSKI

save to print version add songbook text version e-mail correct tuner
chordsukulelecavacokeyboardtabbassdrumsharmonicaflute Guitar Pro
close

there isn't a video lesson for this song

chords

Screamin'

	  		(intro 2x) 

|--3-/-14---|---8---7--|-----6-----|------3------| 
|------------|-----------|------------|------------| 
|------------|-----------|------------|------------| 
|------------|-----------|------------|------------| 
|------------|-----------|------------|------------| 
|------------|-----------|------------|------------| 

(canto) 
|------------------------------------| 
|------------------------------------| 
|--------9---------------------9-----| 
|---9--------------------------------| 
|---7---------7-7-7-7-7-7------------| 

|-------|--------|---------| 
|-------|--------|---------| 
|-------|--------|---------| 
|-------|--------|---------| 
|--5----|---2---|-----7----| 
|--3----|---0---|-----5----| 

(Refrão) 
      B          G        Eb        Eb 
|--------|----------|---------|--------| 
|--------|----------|---------|--------| 
|--------|----------|---------|--------| 
|--------|----------|----8----|----8---| 
|---9----|----5-----|----6----|----6---| 
|---7----|----3-----|---------|--------| 

      B          G        Eb        Eb 
|--------|----------|---------|--------| 
|--------|----------|---------|--------| 
|--------|----------|---------|--------| 
|--------|----------|----8----|----8---| 
|---9----|----5-----|----6----|----6---| 
|---7----|----3-----|---------|--------| 

      B           G         E       E 
|---------|----------|----------|--------| 
|---------|----------|----------|--------| 
|---------|----------|----------|--------| 
|---------|----------|----8----|----8---| 
|---9----|----5-----|----6----|----6----| 
|---7----|----3-----|----------|--------| 

      B          G             Eb        Eb 
|---------|----------|----------|--------| 
|---------|----------|----------|--------| 
|---------|----------|----------|--------| 
|---------|----------|----8----|----8---| 
|---9----|----5-----|----6----|----6---| 
|---7----|----3-----|----------|--------| /fim Refrão 

|-------|----------------------------------------|---------------------------------------------| 
|-------|----------------------------------------|---------------------------------------------| 
|-------|------------------2---------------------|---------------------------------------------| 
|-------|--------0-------------------0--0--------|---------------------------------------------| 
|--9----|---2-------2-----------2-------------2--|----/-7-7-7---------5-5-5-5----2-------------| 
|--7----|----------------------------------------|---------------------------------------------| 

( G  A  F#m  Bm  G  A  G  A ) 

(Refrão) 
		  

Full key step upFull key step up
Half key step upHalf key step up
Half key step downHalf key step down
Full key step downFull key step down
hide glossary

See also:

tabs Beatsteaks - Automatic tabs Colour Haze - Get It On tabs Saltatio Mortis - Ix tabs Tokio Hotel - 1000 Oceans tabs Tokio Hotel - Hey You tabs Hüsker Dü - Hare Krsna
e-chords

Other versions:

tabs Tokio Hotel - Screamin' tabs Sum 41 - Screaming Bloody Murder tabs Accept - Screaming For A Love Bite Intro tabs Slayer - Screaming From The Sky tabs Dashboard Confessional - Screaming Infidelities tabs The Nixons - Screaming Yellow
auto scroll beats size up size down change color hide chords drawings
tab show chords e-chords YouTube Clip e-chords hide all tabs e-chords go to top tab

share