Tokio Hotel

Love And Death

Tokio Hotel

tabs Expert expert

by  LINEKERS

save to print version add songbook text version e-mail correct tuner
chordsukulelecavacokeyboardtabbassdrumsharmonicaflute Guitar Pro
close

there isn't a video lesson for this song

chords

Love And Death

	  		(afinação 1/2 tom abaixo) 

(intro e canto) 
    Em            G          Bm         D 
|-7------8-7--|-7-----8-7--|-7-----7-----|-----------------| 
|---8---------|---8--------|---7------7--|---7-7-7-7-7-7---| 
|-----9-------|-----7------|-----7-------|---7-7-7-7-7-7---| 
|-------------|------------|-------------|-0---------------| 
|-------------|------------|-------------|-----------------| 
|-------------|------------|-------------|-----------------| 

(coro) 
|---|---|---|---| 
|---|---|---|---| 
|---|---|---|---| 
|---|-7-|---|---| 
|-9-|-5-|-7-|-5-| 
|-7-|---|-5-|-3-| 2x 

|---|---|---|---| 
|---|---|---|---| 
|---|---|---|---| 
|---|---|-5-|-2-| 
|-2-|-5-|-3-|-0-| 
|-0-|-3-|---|---| 2x 

(canto 2) 
|------|------| 
|------|------| 
|------|------| 
|-9--7-|------| 
|-7--5-|-7--5-| 
|------|-5--3-|4x 

(canto 3) 
|-7------8-7--|-7------8-7--|-8------10----|-5-------| 
|---8---------|---8---------|---8----------|----5----| 
|-----9-------|-----7-------|-----9--------|------5--| 
|-------------|-------------|--------------|---------| 
|-------------|-------------|--------------|---------| 
|-------------|-------------|--------------|---------| 

(final) 
|-------|------------|-------------| 
|-------|------------|-------------| 
|-------|------------|-------------| 
|-------|------------|-------------| 
|-------|------------|-------------| 
|---0---|-1-0-1-0-1--|--4----------| 
		  

Full key step upFull key step up
Half key step upHalf key step up
Half key step downHalf key step down
Full key step downFull key step down
hide glossary

See also:

tabs Beatsteaks - Automatic tabs Colour Haze - Get It On tabs Saltatio Mortis - Ix tabs Tokio Hotel - 1000 Oceans tabs Tokio Hotel - Hey You tabs Hüsker Dü - Hare Krsna
e-chords

Other versions:

tabs Tokio Hotel - Love And Death
auto scroll beats size up size down change color hide chords drawings
tab show chords e-chords YouTube Clip e-chords hide all tabs e-chords go to top tab

share