Tokio Hotel

Ich Bin Nicht Ich Tab

Tokio Hotel

tabs Beginner beginner

by  LOKOIK

save to print version add songbook text version e-mail correct tuner
chordsukulelecavacokeyboardtabbassdrumsharmonicaflute Guitar Pro
close

there isn't a video lesson for this song

chords

Ich Bin Nicht Ich Tab

	  		INTRO: 

E |--------------------------------------------------------------------------| 
B |--------------------------------------------------------------------------| 
G |----7-7-7-7-7-7-7-7-7-7-7-7-------X-X-X-X---X-X-X-X-X-X--|    
D |----7-7-7-7-7-7-7-7-7-7-7-7-------X-X-X-X---X-X-X-X-X-X--| 
A |----5-5-5-5-5-5-5-5-5-5-5-5-------X-X-X-X---X-X-X-X-X-X--| 
E |--------------------------------------------------------------------------| 


E |-----------------------------------------------------------| 
B |-----------------------------------------------------------| 
G |----7-7-7-7-7-7-3-3-3-3-3-3-3-3-----------------|    
D |----7-7-7-7-7-7-3-3-3-3-3-3-3-3-----------------| 
A |----5-5-5-5-5-5-1-1-1-1-1-1-1-1-----------------| 
E |----------------------------------------------------------|  

E |-----------------------------------------------------------| 
B |-----------------------------------------------------------| 
G |----3-3-3-3-3-3-3-3-3-3-3-3-3-3-----------------|    
D |----3-3-3-3-3-3-3-3-3-3-3-3-3-3-----------------| 
A |----1-1-1-1-1-1-0-0-0-0-0-0-0-0-----------------| 
E |-----------------------------------------------------------| 

E |-----------------------------------------------------------| 
B |-----------------------------------------------------------| 
G |----7-7-7-7-7-7-3-3-3-3-3-3-3-3-----------------|    
D |----7-7-7-7-7-7-3-3-3-3-3-3-3-3-----------------| 
A |----5-5-5-5-5-5-1-1-1-1-1-1-1-1-----------------| 
E |----------------------------------------------------------|  

E |----------------------------------------------------------| 
B |----------------------------------------------------------| 
G |----3-3-3-3-3-3-3-3-3-3-3-3-3-3---3~----------|    
D |----3-3-3-3-3-3-3-3-3-3-3-3-3-3---3~----------| 
A |----1-1-1-1-1-1-1-1-1-1-1-1-1-1---0~----------| 
E |----------------------------------------------------------| 

VERSO: 

E |----------------------------------------------------------| 
B |----------------------------------------------------------| 
G |----5-5-5-5-5-5-5-5-5-5-5-5-5-5-5-5-----------|    
D |----5-5-5-5-5-5-5-5-5-5-5-5-5-5-5-5-----------| 
A |----3-3-3-3-3-3-3-3-3-3-3-3-3-3-3-3-----------| 
E |--------------------PM---------------------------------|  

E |----------------------------------------------------------| 
B |----------------------------------------------------------| 
G |----7-7-7-7-7-7-7-7-7-7-7-7-7-7-7-7-----------|    
D |----5-5-5-5-5-5-5-5-5-5-5-5-5-5-5-5-----------| 
A |----3-3-3-3-3-3-3-3-3-3-3-3-3-3-3-3-----------| 
E |--------------------PM---------------------------------|  

E |---------------------------------------------------| 
B |---------------------------------------------------| 
G |----3-3-3-3-3-3-3-3-3-3-3-3-3-3-3-3----|    
D |----3-3-3-3-3-3-3-3-3-3-3-3-3-3-3-3----| 
A |----1-1-1-1-1-1-1-1-0-0-0-0-0-0-0-0----| 
E |--------------------PM--------------------------|  

CORO: 

E |-----------------------------------------------------------| 
B |-----------------------------------------------------------| 
G |----7-7-7-7-7-7-3-3-3-3-3-3-3-3-----------------|    
D |----7-7-7-7-7-7-3-3-3-3-3-3-3-3-----------------| 
A |----5-5-5-5-5-5-1-1-1-1-1-1-1-1-----------------| 
E |----------------------------------------------------------|  

E |-----------------------------------------------------------| 
B |-----------------------------------------------------------| 
G |----3-3-3-3-3-3-3-3-3-3-3-3-3-3-----------------|    
D |----3-3-3-3-3-3-3-3-3-3-3-3-3-3-----------------| 
A |----1-1-1-1-1-1-0-0-0-0-0-0-0-0-----------------| 
E |-----------------------------------------------------------| 

E |-----------------------------------------------------------| 
B |-----------------------------------------------------------| 
G |----7-7-7-7-7-7-3-3-3-3-3-3-3-3-----------------|    
D |----7-7-7-7-7-7-3-3-3-3-3-3-3-3-----------------| 
A |----5-5-5-5-5-5-1-1-1-1-1-1-1-1-----------------| 
E |----------------------------------------------------------|  

E |-----------------------------------------------------------| 
B |-----------------------------------------------------------| 
G |----3-3-3-3-3-3-3-3-3-3-3-3-3-3-----------------|    
D |----3-3-3-3-3-3-3-3-3-3-3-3-3-3-----------------| 
A |----1-1-1-1-1-1-0-0-0-0-0-0-0-0-----------------| 
E |-----------------------------------------------------------| 

E |-----------------------------------------------------------| 
B |-----------------------------------------------------------| 
G |----7-7-7-7-7-7-3-3-3-3-3-3-3-3-----------------|    
D |----7-7-7-7-7-7-3-3-3-3-3-3-3-3-----------------| 
A |----5-5-5-5-5-5-1-1-1-1-1-1-1-1-----------------| 
E |----------------------------------------------------------|  

E |----------------------------------------------------------| 
B |----------------------------------------------------------| 
G |----3-3-3-3-3-3-3-3-3-3-3-3-3-3---3~----------|    
D |----3-3-3-3-3-3-3-3-3-3-3-3-3-3---3~----------| 
A |----1-1-1-1-1-1-1-1-1-1-1-1-1-1---0~----------| 
E |----------------------------------------------------------| 


VERSO: 

E |----------------------------------------------------------| 
B |----------------------------------------------------------| 
G |----5-5-5-5-5-5-5-5-5-5-5-5-5-5-5-5-----------|    
D |----5-5-5-5-5-5-5-5-5-5-5-5-5-5-5-5-----------| 
A |----3-3-3-3-3-3-3-3-3-3-3-3-3-3-3-3-----------| 
E |--------------------PM---------------------------------|  

E |----------------------------------------------------------| 
B |----------------------------------------------------------| 
G |----7-7-7-7-7-7-7-7-7-7-7-7-7-7-7-7-----------|    
D |----5-5-5-5-5-5-5-5-5-5-5-5-5-5-5-5-----------| 
A |----3-3-3-3-3-3-3-3-3-3-3-3-3-3-3-3-----------| 
E |--------------------PM---------------------------------|  

E |---------------------------------------------------| 
B |---------------------------------------------------| 
G |----3-3-3-3-3-3-3-3-3-3-3-3-3-3-3-3----|    
D |----3-3-3-3-3-3-3-3-3-3-3-3-3-3-3-3----| 
A |----1-1-1-1-1-1-1-1-0-0-0-0-0-0-0-0----| 
E |--------------------PM--------------------------|  



E |-----------------------------------------------------------| 
B |-----------------------------------------------------------| 
G |----7-7-7---7-7-7---7-7-7--2-2-2-2--3-3-3-3---| 
D |----7-7-7---7-7-7---7-7-7--2-2-2-2--3-3-3-3---| 
A |----5-5-5---5-5-5---5-5-5--0-0-0-0--1-1-1-1---| 
E |-----------------------------------------------------------|  

E |-------------------------------------| 
B |-------------------------------------| 
G |----7-7-7---7-7-7---7-7-7-----| 
D |----7-7-7---7-7-7---7-7-7-----|         ( X 3) 
A |----5-5-5---5-5-5---5-5-5-----| 
E |-------------------------------------|  


CORO: 

E |-----------------------------------------------------------| 
B |-----------------------------------------------------------| 
G |----7-7-7-7-7-7-3-3-3-3-3-3-3-3-----------------|    
D |----7-7-7-7-7-7-3-3-3-3-3-3-3-3-----------------| 
A |----5-5-5-5-5-5-1-1-1-1-1-1-1-1-----------------| 
E |----------------------------------------------------------|  

E |-----------------------------------------------------------| 
B |-----------------------------------------------------------| 
G |----3-3-3-3-3-3-3-3-3-3-3-3-3-3-----------------|    
D |----3-3-3-3-3-3-3-3-3-3-3-3-3-3-----------------| 
A |----1-1-1-1-1-1-0-0-0-0-0-0-0-0-----------------| 
E |-----------------------------------------------------------| 

E |-----------------------------------------------------------| 
B |-----------------------------------------------------------| 
G |----7-7-7-7-7-7-3-3-3-3-3-3-3-3-----------------|    
D |----7-7-7-7-7-7-3-3-3-3-3-3-3-3-----------------| 
A |----5-5-5-5-5-5-1-1-1-1-1-1-1-1-----------------| 
E |----------------------------------------------------------|  

E |-----------------------------------------------------------| 
B |-----------------------------------------------------------| 
G |----3-3-3-3-3-3-3-3-3-3-3-3-3-3-----------------|    
D |----3-3-3-3-3-3-3-3-3-3-3-3-3-3-----------------| 
A |----1-1-1-1-1-1-0-0-0-0-0-0-0-0-----------------| 
E |-----------------------------------------------------------| 

E |-----------------------------------------------------------| 
B |-----------------------------------------------------------| 
G |----7-7-7-7-7-7-3-3-3-3-3-3-3-3-----------------|    
D |----7-7-7-7-7-7-3-3-3-3-3-3-3-3-----------------| 
A |----5-5-5-5-5-5-1-1-1-1-1-1-1-1-----------------| 
E |----------------------------------------------------------|  

E |----------------------------------------------------------| 
B |----------------------------------------------------------| 
G |----3-3-3-3-3-3-3-3-3-3-3-3-3-3---3~----------|    
D |----3-3-3-3-3-3-3-3-3-3-3-3-3-3---3~----------| 
A |----1-1-1-1-1-1-1-1-1-1-1-1-1-1---0~----------| 
E |----------------------------------------------------------| 



E |-----------------------------------------------------------| 
B |-----------------------------------------------------------| 
G |----7-7-7-7-7-7-3-3-3-3-3-3-3-3-----------------|    
D |----7-7-7-7-7-7-3-3-3-3-3-3-3-3-----------------| 
A |----5-5-5-5-5-5-1-1-1-1-1-1-1-1-----------------| 
E |----------------------------------------------------------|  

E |-----------------------------------------------------------| 
B |-----------------------------------------------------------| 
G |----3-3-3-3-3-3-3-3-3-3-3-3-3-3-----------------|    
D |----3-3-3-3-3-3-3-3-3-3-3-3-3-3-----------------| 
A |----1-1-1-1-1-1-0-0-0-0-0-0-0-0-----------------| 
E |-----------------------------------------------------------| 

E |-----------------------------------------------------------| 
B |-----------------------------------------------------------| 
G |----7-7-7-7-7-7-3-3-3-3-3-3-3-3-----------------|    
D |----7-7-7-7-7-7-3-3-3-3-3-3-3-3-----------------| 
A |----5-5-5-5-5-5-1-1-1-1-1-1-1-1-----------------| 
E |----------------------------------------------------------|  

E |----------------------------------------------------------| 
B |----------------------------------------------------------| 
G |----3-3-3-3-3-3-3-3-3-3-3-3-3-3---3~----------|    
D |----3-3-3-3-3-3-3-3-3-3-3-3-3-3---3~----------| 
A |----1-1-1-1-1-1-1-1-1-1-1-1-1-1---0~----------| 
E |----------------------------------------------------------| 
		  

See also:

tabs Beatsteaks - Automatic tabs Colour Haze - Get It On tabs Saltatio Mortis - Ix tabs Tokio Hotel - 1000 Oceans tabs Tokio Hotel - Hey You tabs Hüsker Dü - Hare Krsna
e-chords

Other versions:

tabs Tokio Hotel - Ich Bin Nicht Ich Tab
auto scroll beats size up size down change color hide chords drawings
tab show chords e-chords YouTube Clip e-chords hide all tabs e-chords go to top tab

share