Tokio Hotel

An Deiner Seite Ich Bin Da

Tokio Hotel

tabs Beginner beginner

by  ROBE_MEDEIROS

save to print version add songbook text version e-mail correct tuner
chordsukulelecavacokeyboardtabbassdrumsharmonicaflute Guitar Pro
close

there isn't a video lesson for this song

chords

An Deiner Seite Ich Bin Da

	  		Afinação: E A D G B e 

Introdução 

    D#              G#              D# 
e|------------------------------------| 
B|------------------------------------| 
G|------------------------------------|   
D|--------5-------5-6-----6-------6p5-| 
A|--5/6-6---6-6-6-----6-6---6-6-6-----| 
E|------------------------------------| 

    D#            G#              D# 
e|----------------------------------| 
B|----------------------------------| 
G|----------------------------------| 
D|------5-------5-6-----6-------6p5-| 
A|--6-6---6-6-6-----6-6---6-6-6-----| 
E|----------------------------------| 

Verso 
  
    D#            G#              D# 
e|----------------------------------| 
B|----------------------------------| 
G|----------------------------------|  (2x) 
D|------5-------5-6-----6-------6p5-| 
A|--6-6---6-6-6-----6-6---6-6-6-----| 
E|----------------------------------| 

    Cm            G#              D# 
e|----------------------------------| 
B|----------------------------------| 
G|----------------------------------| 
D|------5-------5-6-----6-------6p5-| 
A|--3-3---3-3-3-----6-6---6-6-6-----| 
E|----------------------------------|   

    D#            G#              D# 
e|----------------------------------| 
B|----------------------------------| 
G|----------------------------------|   
D|------5-------5-6-----6-------6p5-| 
A|--6-6---6-6-6-----6-6---6-6-6-----| 
E|----------------------------------| 

Pré-Refrão 

    Bb            G# 
e|------------------------------| 
B|------------------------------| 
G|------------------------------| 
D|------------------------------| 
A|--8-8-8-8-8-8-8-6-6-6-6-6-6-6-| 
E|--6-6-6-6-6-6-6-4-4-4-4-4-4-4-| 
  
    D#            G#              D# 
e|----------------------------------| 
B|----------------------------------| 
G|----------------------------------|   
D|------5-------5-6-----6-------6p5-| 
A|--6-6---6-6-6-----6-6---6-6-6-----| 
E|----------------------------------| 

    Bb             G# 
e|-----------------------| 
B|-----------------------| 
G|-----------------------| 
D|-----------------------| 
A|--8-8-8-8-8-8-8--6-----| 
E|--6-6-6-6-6-6-6--4-----| 

Refrão 

    D#            G#              D# 
e|----------------------------------| 
B|----------------------------------| 
G|----------------------------------|  (2x) 
D|------5-------5-6-----6-------6p5-| 
A|--6-6---6-6-6-----6-6---6-6-6-----| 
E|----------------------------------| 

    Cm            G#              D# 
e|----------------------------------| 
B|----------------------------------| 
G|----------------------------------| 
D|------5-------5-6-----6-------6p5-| 
A|--3-3---3-3-3-----6-6---6-6-6-----| 
E|----------------------------------|   

    D#            G#              D# 
e|----------------------------------| 
B|----------------------------------| 
G|----------------------------------| 
D|------5-------5-6-----6-------6p5-| 
A|--6-6---6-6-6-----6-6---6-6-6-----| 
E|----------------------------------| 

Solinho junto com o refão 

     D#            G#           
e|----------------------------------------| 
B|---8--9---8--9---11--9---11--9----------| 
G|----------------------------------------|  (2x) 
D|----------------------------------------| 
A|----------------------------------------| 
E|----------------------------------------| 
    
Base do segundo refão 
  
    D#   G#   D#  G#    Cm   G#   D#   G# 
e|---------------------------------------------| 
B|--8---------8---------4---------8------------| 
G|--8----5----8---5-----5----5----8----5-------|  (2x) 
D|--8----6----8---6-----5----6----8----6-------| 
A|--6----6----6---6-----3----6----6----6-------| 
E|-------4--------4----------4---------4-------| 

Solinho junto com o 2° verso 
   
    D#      G#        Cm      G# 
e|------------------|-----------------|---| 
B|--8---8---9---9---|-8---8---9---9---|9\-| 
G|----8---8---8---8-|---8---8---8---8-|---| 
D|------------------|-----------------|---| 
A|------------------|-----------------|---| 
E|------------------|-----------------|---| 

Ponte  

    G#       Cm       Bb       G# 
e|----------------------------------------| 
B|----------------------------------------| 
G|-----------5--5--5----------------------|  (2x) 
D|--6--6--6--5--5--5--8--8--8--66-66------|   
A|--6--6--6--3--3--3--8--8--8--66-66------| 
E|--4--4--4-----------6--6--6--44-44------| 

    Bb       G#     Bb    G# 
e|------------------------------------| 
B|------------------------------------|              
G|------------------------------------| 
D|--8--8--8--66-666-8-8-8-66-666-6----| 
A|--8--8--8--66-666-8-8-8-66-666-6----| 
E|--6--6?-6-?44-444-6-6-6-44-444-4----| 

Último Refrão 

    G#       Cm       Bb       G#       
e|--------------------------------------| 
B|--------------------------------------| 
G|-----------55555555-------------------|  (4x) 
D|--66666666-55555555-88888888-66666666-| 
A|--66666666-33333333-88888888-66666666-| 
E|--44444444----------66666666-44444444-| 
   
    Bb       G#     Bb    G# 
e|------------------------------------| 
B|------------------------------------|              
G|------------------------------------| 
D|--8--8--8--66-666-8-8-8-66-666-6----| 
A|--8--8--8--66-666-8-8-8-66-666-6----| 
E|--6--6?-6-?44-444-6-6-6-44-444-4----| 

Final 

    D#            G#              D# 
e|----------------------------------| 
B|----------------------------------| 
G|----------------------------------|  (2x) 
D|------5-------5-6-----6-------6p5-| 
A|--6-6---6-6-6-----6-6---6-6-6-----| 
E|----------------------------------| 

 Letra 

 keiner weiss wies dir geht 
 keiner da der dich versteht 
 der tag war dunkel und allein 
 du schreibst hilfe mit deinem blut 
 obwohl es immer wieder wehtut 
 du machst die Augen auf und alles bleibt gleich 

 ich will nicht stör?n und ich will auch nicht  
 zu lange bleiben 
 ich bin nur hier um dir zu sagen 

 ich bin da, wenn du willst 
 schau dich um dann siehst du mich 
 ganz egal wo du bist 
 wenn du nach mir greifst dann halt ich dich 

 dein leben sinnentleert  
 deine schatten tannenschwer 
 und alles was du jetzt brauchst hast du nicht 
 du suchst den regenbogen 
 er liegt tot vor dir am boden 
 er hat solang es ging gestrahlt nur für dich 

 ich will nicht störn 
 und ich will auch nicht zu lange bleiben 
 ich bin nur hier um dir zu sagen 

 ich bin da, wenn du willst 
 schau dich um dann siehst du mich 
 ganz egal wo du bist 
 wenn du nach mir greifst dann halt ich dich 

 wenn du die welt nicht mehr verstehst 
 und jeder tag im nichts vergeht 
 wenn sich der sturm nicht mehr legt 
 und du die nacht nicht mehr erträgst 
 ich bin da wenn du willst 
 ganz egal wo du bist 

 an deiner seite  
 nur eine weile 

 ich bin da 
 ich bin da wenn du willst 
 ich bin da  
 ganz egal wo du bist 
 ich bin da 
 schau in dich rein dann siehst du mich 
 ich bin da 
 wenn du nach mir greifst halt ich dich 
 ich bin da wenn du willst 
 ganz egal wo du bist 

 an deiner seite 
 nur eine weile 
 du bist nicht alleine 

 ich bin an deiner Seite 
		  

Full key step upFull key step up
Half key step upHalf key step up
Half key step downHalf key step down
Full key step downFull key step down
hide glossary

See also:

tabs Beatsteaks - Automatic tabs Colour Haze - Get It On tabs Saltatio Mortis - Ix tabs Tokio Hotel - 1000 Oceans tabs Tokio Hotel - Hey You tabs Hüsker Dü - Hare Krsna
e-chords

Other versions:

tabs Tokio Hotel - An Deiner Seite Ich Bin Da
auto scroll beats size up size down change color hide chords drawings
tab show chords e-chords YouTube Clip e-chords hide all tabs e-chords go to top tab

share