Title Fight

Shed

Title Fight

tabs Intermediate intermediate

by  GUSTSILVA

save to print version add songbook text version e-mail correct tuner
chordsukulelecavacokeyboardtabbassdrumsharmonicaflute Guitar Pro
close

there isn't a video lesson for this song

chords

Shed

Key:  C# More
Shed Key G#G#
Shed Key AA
Shed Key A#A#
Shed Key BB(one step down)
Shed Key CC(half step down)
Shed Key C#C#(original key)
Shed Key DD(half step up)
Shed Key D#D#(one step up)
Shed Key EE
Shed Key FF
Shed Key F#F#
Shed Key GG
	  		

(intro) 

e|---------------------------------------------------------| 
B|---------------------------------------------------------| 
G|-666666--------666666--------222222----------------------| 
D|-666666-222222-666666-222222-222222----------------------| 
A|-444444-222222-444444-222222-000000----------------------| 
D|--------222222--------222222-----------------------------| 
                               xxxxx 

e|---------------------------------------------------------| 
B|---------------------------------------------------------| 
G|-666666--------666666--------2---------------------------| 
D|-666666-222222-666666-222222-2---------------------------| 
A|-444444-222222-444444-222222-0---------------------------| 
D|--------222222--------222222-----------------------------| 

(Lead intro)  

e|--------------------------------------------------------| 
B|--------------------------------------------------------| 
G|---99-11-13----13-13-13-13b--13-13-13-13-13-13-13-13----| 
D|---xx-x--x-----x--x--x -x----x--x--x--x--x--x--x--x-----| 
A|---77-9--11----11-11-11-11b--11-11-11-11-11-11-11-11----| 
D|--------------------------------------------------------| 

e|--------------------------------------------------------| 
B|--------------------------------------------------------| 
G|---13-13-13-13b--13-13-13-13-13-13-13-13-13-13-13-------| 
D|---x--x--x -x----x--x--x--x--x--x--x--x--x--x--x--------| 
A|---11-11-11-11b--11-11-11-11-11-11-11-11-11-11-11-------| 
D|--------------------------------------------------------| 
                                 
e|--------| 
B|--------| 
G|-2------| 
D|-2------| 
A|-0------| 
D|--------| 

(Rhythm & Lead verse) 

e|------------------------------------------------------------------| 
B|------------------------------------------------------------------| 
G|-666---------------666-----2222222--774666------------------------| 
D|-666-2222222222222-666-222-2222222--774666------------------------| 
A|-444-2222222222222-444-222-0000000--552444------------------------| 
D|-----2222222222222-----222----------------------------------------| 
    xx  xxxxxxxxxxxx  xx  xx  xxxxxx      xx 

(The rhythm plays this five more times while the lead plays this) 

e|--------------------------------------------------------| 
B|--------------------------------------------------------| 
G|--8---9---8---9---11------------------------------------| 
D|---9---9---9---9----9-----------------------------------| 
A|----7---7---7---7----7----------------------------------| 
D|--------------------------------------------------------| 

(This Repeats four times and at the end of the fourth time you play the lead's intro again.) 
 

e|--------| 
B|--------| 
G|-222-222| 
D|-222-222| 
A|-000-000| 
D|--------| 

(Chrous; Lead) 

e|-----------------------------| 
B|----------------10--10--10---| 
G|-8--8--8--8-9h-9---9---9---9-| 
D|-----------------------------| 
A|--7--7--7--------------------| 
D|-----------------------------| 

(Chorus; Rhythm) 

e|---------------------------------------------------------------| 
B|---------------------------------------------------------------| 
G|------4s666666-----4s666666--222-4s666666-222-4s666666---------| 
D|--222-4s666666-222-4s666666--222-4s666666-222-4s666666---------| 
A|--222-2s444444-222-2s444444--000-2s444444-000-2s444444---------| 
D|--222----------222---------------------------------------------| 

(Now the Bridge; Rythm) 

e|-----------------------------------------| 
B|-----------------------------------------| 
G|-666--666---2-7746-----------------------| 
D|-6662-6662222-7746-----------------------| 
A|-4442-4442220-5524-----------------------| 
D|----2----222-----------------------------| 


(Bridge; Lead) 

e|-----------------------------------| 
B|-----------------------------------| 
G|-8--8--8--8b8888888----------------| 
D|-----------------------------------| 
A|--7--7--7--------------------------| 
D|-----------------------------------| 

 
		  

auto scroll beats size up size down change color hide chords drawings
tab show chords e-chords YouTube Clip e-chords hide all tabs e-chords go to top tab

share