Title Fight

Secret Society

Title Fight

tabs

by  JOV-CORREA

save to print version add songbook text version e-mail correct tuner
chordsukulelecavacokeyboardtabbassdrumsharmonicaflute Guitar Pro
close

there isn't a video lesson for this song

chords

Secret Society

	  		


verse 1    0:34 
 ...fate           i said everything is fine with   me            i lied through my 
e|---------------------------------------------------------------------------------| 
B|---------------------------------------------------------------------------------| 
G|-4-4-4-4-4-4-4-4-4-4-4-4-4-4-4-4-4-4-4-4-4-4-4-4---------------------------------| 
D|-4-4-4-4-4-4-4-4-4-4-4-4-4-4-4-4-4-4-4-4-4-4-4-4-2-2-2-2-2-2-2-2-2-2-2-2-2-2-2-2-| 
A|-2-2-2-2-2-2-2-2-2-2-2-2-2-2-2-2-2-2-2-2-2-2-2-2-2-2-2-2-2-2-2-2-2-2-2-2-2-2-2-2-| 
E|-------------------------------------------------0-0-0-0-0-0-0-0-0-0-0-0-0-0-0-0-| 

   teeth               i lost all of my     self   respect               its such a  
e|---------------------------------------------------------------------------------| 
B|---------------------------------------------------------------------------------| 
G|-4-4-4-4-4-4-4-4-4-4-4-4-4-4-4-4-4-4-4-4-4-4-4-4---------------------------------| 
D|-4-4-4-4-4-4-4-4-4-4-4-4-4-4-4-4-4-4-4-4-4-4-4-4-5-5-5-5-5-5-5-5-5-5-5-5-5-5-5-5-| 
A|-2-2-2-2-2-2-2-2-2-2-2-2-2-2-2-2-2-2-2-2-2-2-2-2-5-5-5-5-5-5-5-5-5-5-5-5-5-5-5-5-| 
E|-------------------------------------------------3-3-3-3-3-3-3-3-3-3-3-3-3-3-3-3-| 

   wreck 
e|------------------------------------------------------------------| 
B|------------------------------------------------------------------| 
G|-4-4-4-4-4-4-4-4-4-4-4-4-4-4-4-4-4-4-4-4-4-4-4-4-4-4-4-4-4-4-4-4--| 
D|-4-4-4-4-4-4-4-4-4-4-4-4-4-4-4-4-4-4-4-4-4-4-4-4-4-4-4-4-4-4-4-4--| 
A|-2-2-2-2-2-2-2-2-2-2-2-2-2-2-2-2-2-2-2-2-2-2-2-2-2-2-2-2-2-2-2-2--| 
E|------------------------------------------------------------------| 


   pre pre chorus 
             running out of air to breathe 
e|------------------------------------------------------------------| 
B|------------------------------------------------------------------| 
G|---------------------------------4-4-4-4-4-4-4-4-4-4-4-4-4-4-4-4--| 
D|-5-5-5-5-5-5-5-5-8-8-8-8-8-8-8-8-4-4-4-4-4-4-4-4-4-4-4-4-4-4-4-4--| 
A|-5-5-5-5-5-5-5-5-8-8-8-8-8-8-8-8-2-2-2-2-2-2-2-2-2-2-2-2-2-2-2-2--| 
E|-3-3-3-3-3-3-3-3-6-6-6-6-6-6-6-6----------------------------------| 

           think its time for me to 
e|----------------------------------| 
B|----------------------------------| 
G|----------------------------------| 
D|-5-5-5-5-5-5-5-5-8-8-8-8-8-8-8-8--| 
A|-5-5-5-5-5-5-5-5-8-8-8-8-8-8-8-8--| 
E|-3-3-3-3-3-3-3-3-6-6-6-6-6-6-6-6--| 

 pre chorus 
   leave my friends          all behind 
e|--------------------------------------------------| 
B|--------------------------------------------------| 
G|----------7-7-7-7-7-7-7-7---4~--------------------| 
D|--5~------7-7-7-7-7-7-7-7---4~--4-4-4-4-4-4-4-4---| 
A|--5~---5--5-5-5-5-5-5-5-5---2~--4-4-4-4-4-4-4-4---| 
E|--3~---5--5-5-5-5-5-5-5-5-------2-2-2-2-2-2-2-2---| 

   watch me hurt      or are you  blind?       i 
e|--------------------------------------------------| 
B|--------------------------------------------------| 
G|----------7-7-7-7-7-7-7-7---4~--------------------| 
D|--5~------7-7-7-7-7-7-7-7---4~--4-4-4-4-4-4-4-4---| 
A|--5~---5--5-5-5-5-5-5-5-5---2~--4-4-4-4-4-4-4-4---| 
E|--3~---5--5-5-5-5-5-5-5-5-------2-2-2-2-2-2-2-2---| 

  think its sad       you'll never know 
e|--------------------------------------------------| 
B|--------------------------------------------------| 
G|----------7-7-7-7-7-7-7-7---4~--------------------| 
D|--5~------7-7-7-7-7-7-7-7---4~--4-4-4-4-4-4-4-4---| 
A|--5~---5--5-5-5-5-5-5-5-5---2~--4-4-4-4-4-4-4-4---| 
E|--3~---5--5-5-5-5-5-5-5-5-------2-2-2-2-2-2-2-2---| 
   
      my true feelings     will never show 
e|--------------------------------------------------| 
B|--------------------------------------------------| 
G|----------7-7-7-7-7-7-7-7---4~--------------------| 
D|--5~------7-7-7-7-7-7-7-7---4~--4-4-4-4-4-4-4-4---| 
A|--5~---5--5-5-5-5-5-5-5-5---2~--4-4-4-4-4-4-4-4---| 
E|--3~---5--5-5-5-5-5-5-5-5-------2-2-2-2-2-2-2-2---| 

e|------------------------------------------------------------------| 
B|------------------------------------------------------------------| 
G|-4-4-4-4-4-4-4-4-4-4-4-4-4-4-4-4-4-4-4-4-4-4-4-4-4-4-4-4-4-4-4-4--| 
D|-4-4-4-4-4-4-4-4-4-4-4-4-4-4-4-4-4-4-4-4-4-4-4-4-4-4-4-4-4-4-4-4--| 
A|-2-2-2-2-2-2-2-2-2-2-2-2-2-2-2-2-2-2-2-2-2-2-2-2-2-2-2-2-2-2-2-2--| 
E|------------------------------------------------------------------| 

    verse 2                       
                     i made promises that i can't keep                      i fell 
e|---------------------------------------------------------------------------------| 
B|---------------------------------------------------------------------------------| 
G|-4-4-4-4-4-4-4-4-4-4-4-4-4-4-4-4-4-4-4-4-4-4-4-4---------------------------------| 
D|-4-4-4-4-4-4-4-4-4-4-4-4-4-4-4-4-4-4-4-4-4-4-4-4-2-2-2-2-2-2-2-2-2-2-2-2-2-2-2-2-| 
A|-2-2-2-2-2-2-2-2-2-2-2-2-2-2-2-2-2-2-2-2-2-2-2-2-2-2-2-2-2-2-2-2-2-2-2-2-2-2-2-2-| 
E|-------------------------------------------------0-0-0-0-0-0-0-0-0-0-0-0-0-0-0-0-| 

 asleep/i was the one who locked the door, i lost the key     
e|---------------------------------------------------------------------------------| 
B|---------------------------------------------------------------------------------| 
G|-4-4-4-4-4-4-4-4-4-4-4-4-4-4-4-4-4-4-4-4-4-4-4-4---------------------------------| 
D|-4-4-4-4-4-4-4-4-4-4-4-4-4-4-4-4-4-4-4-4-4-4-4-4-5-5-5-5-5-5-5-5-5-5-5-5-5-5-5-5-| 
A|-2-2-2-2-2-2-2-2-2-2-2-2-2-2-2-2-2-2-2-2-2-2-2-2-5-5-5-5-5-5-5-5-5-5-5-5-5-5-5-5-| 
E|-------------------------------------------------3-3-3-3-3-3-3-3-3-3-3-3-3-3-3-3-| 

e|------------------------------------------------------------------| 
B|------------------------------------------------------------------| 
G|-4-4-4-4-4-4-4-4-4-4-4-4-4-4-4-4-4-4-4-4-4-4-4-4-4-4-4-4-4-4-4-4--| 
D|-4-4-4-4-4-4-4-4-4-4-4-4-4-4-4-4-4-4-4-4-4-4-4-4-4-4-4-4-4-4-4-4--| 
A|-2-2-2-2-2-2-2-2-2-2-2-2-2-2-2-2-2-2-2-2-2-2-2-2-2-2-2-2-2-2-2-2--| 
E|------------------------------------------------------------------| 

 pre chorus 2 
       told me lies straight to my face 
e|------------------------------------------------------------------| 
B|------------------------------------------------------------------| 
G|---------------------------------4-4-4-4-4-4-4-4-4-4-4-4-4-4-4-4--| 
D|-5-5-5-5-5-5-5-5-8-8-8-8-8-8-8-8-4-4-4-4-4-4-4-4-4-4-4-4-4-4-4-4--| 
A|-5-5-5-5-5-5-5-5-8-8-8-8-8-8-8-8-2-2-2-2-2-2-2-2-2-2-2-2-2-2-2-2--| 
E|-3-3-3-3-3-3-3-3-6-6-6-6-6-6-6-6----------------------------------| 

                but i guess that's 
e|----------------------------------| 
B|----------------------------------| 
G|----------------------------------| 
D|-5-5-5-5-5-5-5-5-8-8-8-8-8-8-8-8--| 
A|-5-5-5-5-5-5-5-5-8-8-8-8-8-8-8-8--| 
E|-3-3-3-3-3-3-3-3-6-6-6-6-6-6-6-6--| 

     chorus 
  fate                    i'll be  you     and    you'll        be  
e|------------------------------------------------------------------| 
B|------------------------------------------------------------------| 
G|-4-4-4-4-4-4-4-4-4-4-4-4-4-4-4-4-8-8-8-8-8-8-8-8-9-9-9-9-9-9-9-9--| 
D|-4-4-4-4-4-4-4-4-4-4-4-4-4-4-4-4-8-8-8-8-8-8-8-8-9-9-9-9-9-9-9-9--| 
A|-2-2-2-2-2-2-2-2-2-2-2-2-2-2-2-2-6-6-6-6-6-6-6-6-7-7-7-7-7-7-7-7--| 
E|------------------------------------------------------------------| 
   me                    i'll be   you     and    you'll        be 
e|------------------------------------------------------------------| 
B|------------------------------------------------------------------| 
G|-4-4-4-4-4-4-4-4-4-4-4-4-4-4-4-4-8-8-8-8-8-8-8-8-9-9-9-9-9-9-9-9--| 
D|-4-4-4-4-4-4-4-4-4-4-4-4-4-4-4-4-8-8-8-8-8-8-8-8-9-9-9-9-9-9-9-9--| 
A|-2-2-2-2-2-2-2-2-2-2-2-2-2-2-2-2-6-6-6-6-6-6-6-6-7-7-7-7-7-7-7-7--|  CHORUS PLAYS TWICE with    
E|------------------------------------------------------------------|  vocals, then rhythm guitar 
      me                       my  secret          society             plays chorus chords under  
e|------------------------------------------------------------------|  solo until the end         
B|------------------------------------------------------------------| 
G|---------------------------------8-8-8-8-8-8-8-8-9-9-9-9-9-9-9-9--| 
D|-6-6-6-6-6-6-6-6-6-6-6-6-6-6-6-6-8-8-8-8-8-8-8-8-9-9-9-9-9-9-9-9--| 
A|-6-6-6-6-6-6-6-6-6-6-6-6-6-6-6-6-6-6-6-6-6-6-6-6-7-7-7-7-7-7-7-7--| 
E|-4-4-4-4-4-4-4-4-4-4-4-4-4-4-4-4----------------------------------| 

e|--------------------------------| 
B|--------------------------------| 
G|-4-4-4-4-4-4-4-4-4-4-4-4-4-4-4--| 
D|-4-4-4-4-4-4-4-4-4-4-4-4-4-4-4--| 
A|-2-2-2-2-2-2-2-2-2-2-2-2-2-2-2--| 
E|--------------------------------| 

-------solo---------------- 

e|--------------------------------------------------------------------------------| 
B|--4-4--4-4--4-4-4b-4--4-4-4-4-4b-4-4-4-4-4-4-7p9-7-4-4b-4b-4b-4b--4-2--4~~~-----| 
G|--------------------------------------------------------------------------------| 
D|--------------------------------------------------------------------------------| x2 
A|--------------------------------------------------------------------------------| 
E|--------------------------------------------------------------------------------| 

rhythm ends on B power chord 
e|---------------------------| 
B|---------------------------| 
G|--4~-----------------------| 
D|--4~-----------------------| 
A|--2~-----------------------| 
E|---------------------------| 
		  

Full key step upFull key step up
Half key step upHalf key step up
Half key step downHalf key step down
Full key step downFull key step down
auto scroll beats size up size down change color hide chords drawings
tab show chords e-chords YouTube Clip e-chords hide all tabs e-chords go to top tab

share