Title Fight

Room 200

Title Fight

tabs

by  EDSOOLIVEIRA

save to print version add songbook text version e-mail correct tuner
chordsukulelecavacokeyboardtabbassdrumsharmonicaflute Guitar Pro
close

there isn't a video lesson for this song

chords

Room 200

	  		

Intro 1:       
e|------------------| 
B|------------------| 
G|-7--~~~~--7-7-----| (drum and bass fill) 
D|-7--~~~~--7-7-----| 
A|-5--~~~~--5-5-----| 
E|------------------| 

Intro 2:                           1st Ending   2nd Ending 
e|-----------------------------|--|------------|-------------| 
B|-----------------------------|--|------------|-------------| 
G|-7-7--7-6-6--6-4-4--4--------|x3|------------|-------------| 
D|-7-7--7-7-7--7-4-4--4-5-5--5-|--|-2-----5----|-2--2--5-----| 
A|-5-5--5-4-4--4-2-2--2-5-5--5-|--|-2-----5----|-2--2--5-----| 
E|----------------------3-3--3-|--|-0-----3----|-0--0--3-----| 
 | 
e|-----------------------------|--|------------|-14----------| 
B|-----------------------------|--|------------|----15-------| 
G|-1111-111414-141111-111212-12|x3|------------|-------14-~~-| 
D|-----------------------------|--|------------|-------------| 
A|-----------------------------|--|------------|-------------| 
E|-----------------------------|--|------------|-------------| 


Verse part 1: 
e|---------------------------|---------------------------|--| 
B|---------------------------|---------------------------|--| 
G|-7-7--7--7--7-7-7--7--7--7-|---------------------------|x2| 
D|-7-7--7--7--7-7-7--7--7--7-|-4-4--4--4--4-5-5--5--5--5-|--| 
A|-5-5--5--5--5-5-5--5--5--5-|-4-4--4--4--4-5-5--5--5--5-|--| 
E|---------------------------|-2-2--2--2--2-3-3--3--3--3-|--| 

Verse part 2: (shot down in flames!) 
e|-----------------------------|-------------------------------|--| 
B|-----------------------------|-------------------------------|--| 
G|-----------------------------|-------------------------------|x2| 
D|-9-9--9-9-9--9-9-9--9-7-7--7-|-5-5--5-5-5--5-5-5--5-5-5--5---|--| 
A|-9-9--9-9-9--9-9-9--9-7-7--7-|-5-5--5-5-5--5-5-5--5-5-5--5---|--| 
E|-7-7--7-7-7--7-7-7--7-5-5--5-|-3-3--3-3-3--3-3-3--3-3-3--3---|--| 

Outro: (with all that I have gone through for you) 
e|---------------------------------|---------------------------------------| 
B|---------------------------------|---------------------------------------| 
G|---------------------------------|---------------------------------------| 
D|-2-2-2-2-4-4-4-4-5-5-5-5-7-7-7-7-|-----2-------2-------4-------4----5----| 
A|-2-2-2-2-4-4-4-4-5-5-5-5-7-7-7-7-|-2-2-2---2-2-2---4-4-4---4-4-4----5----| 
E|-0-0-0-0-2-2-2-2-3-3-3-3-5-5-5-5-|-0-0-0---0-0-0---2-2-2---2-2-2----3----| 
                                     pm.     . .     . .     . . 
		  

auto scroll beats size up size down change color hide chords drawings
tab show chords e-chords YouTube Clip e-chords hide all tabs e-chords go to top tab

share