Tiny Ruins

Me At The Museum You In The Wintergardens (live)

Tiny Ruins

tabs

by  UBIRBOMFIM

save to print version add songbook text version e-mail correct tuner
chordsukulelecavacokeyboardtabbassdrumsharmonicaflute Guitar Pro
close

there isn't a video lesson for this song

chords

Me At The Museum You In The Wintergardens (live)

	  		Artist: Tiny Ruins (www.tinyruins.com) 
Track: Me at the museum, you in the wintergardens (Live) 
Album: Brightly Painted One 
Tabbed by: Darcy Drumhead 

This is what I could figure out from a youtube video of the song. 
It's not perfect. Let me know if you have any suggestions. 
Email: [email protected] 

 
Capo on the 3rd 

E----------------------------------|----------------------------------| 
B---0-------0------------0---0-----|---0-------0------------0---0-----| 
G-------0-------0----------0-----0-|-------0-------0----------0-----0-| 
D-----------------0-4h-4-------0---|-----------------0-4h-4-------0---| 
A-----5---5---5--------------------|-----5---5---5--------------------| 
E-3--------------------------------|-3--------------------------------| 

E----------------------------------|----------------------------------| 
B---0-------0------------0---0-----|---0-------0-------0-------0------| 
G-------0-------0----------0-----0-|-------0-------0-------0-------0--| 
D-----------------0-4h-4-------0---|----------------------------------| 
A-----5---5---5--------------------|-----5---5---5---5---5---5---5----| 
E-3--------------------------------|-3--------------------------------| 

                       I  await the  day 
E----------------------------------|----------------------------------| 
B---0-------0-------0-------0------|---0-------0-------0-------0------| 
G-------0-------0-------0-------0--|-------5-------5-------5-------5--| 
D----------------------------------|-----4-------4-------4-------4----| 
A-----5---5---5---5---5---5---5----|-5-------5-------5-------5--------| 
E-3--------------------------------|----------------------------------| 

             When I work at the museum 
E----------------------------------|-0---------0-----0---------0------| 
B---0-------0-------0-------0------|----------------------------------| 
G-------5-------5-------5-------5--|-------0---------------0----------| 
D-----4-------4-------4-------4----|-----2-------2-------2-------2----| 
A-5-------5-------5-------5--------|-4-------4-------4-------4--------| 
E----------------------------------|----------------------------------| 

               With you across the  way 
E-0---------0-----0---------0------|-0---------------3----------------| 
B----------------------------------|------------1---------------1-----| 
G-------0---------------0----------|-------0---------------0----------| 
D-----2-------2-------2-------2----|-----2-------2-------2-------2----| 
A-4-------4-------4-------4--------|-0-------0-------0-------0--------| 
E----------------------------------|----------------------------------| 

                  In the winter     gardens  
E-3---------------3----------------|----------------------------------| 
B------------1---------------1-----|---1-------1-------1-------1------| 
G-------0---------------0----------|-------2-------2-------2-------2--| 
D-----2-------2-------2-------2----|-----0-------0-------0-------0----| 
A-0-------0-------0-------0--------|-3-------3-------3-------3--------| 
E----------------------------------|----------------------------------| 

                     So young and so warm 
E----------------------------------|----------------------------------| 
B---1-------1-------1-------1------|---0-------0------------0---0-----| 
G-------2-------2-------2-------2--|-------0-------0----------0-----0-| 
D-----0-------0-------0-------0----|-----------------0-4h-4-------0---| 
A-3-------3-------3-------3--------|-----5---5---5--------------------| 
E----------------------------------|-3--------------------------------| 

            We?ll  storm   we?ll    swarm 
E----------------------------------|----------------------------------| 
B---0-------0-------0-------0------|---0-------0-------0-------0------| 
G-------0-------0-------0-------0--|-------5-------5-------5-------5--| 
D----------------------------------|-----4-------4-------4-------4----| 
A-----5---5---5---5---5---5---5----|-5-------5-------5-------5--------| 
E-3--------------------------------|----------------------------------| 

                   The parks on our lunch breaks 
E----------------------------------|-0---------0-----0---------0------| 
B---0-------0-------0-------0------|----------------------------------| 
G-------5-------5-------5-------5--|-------0---------------0----------| 
D-----4-------4-------4-------4----|-----2-------2-------2-------2----| 
A-5-------5-------5-------5--------|-4-------4-------4-------4--------| 
E----------------------------------|----------------------------------| 

                      We lie on the lawn 
E-0---------0-----0---------0------|-0---------------3----------------| 
B----------------------------------|------------1---------------1-----| 
G-------0---------------0----------|-------0---------------0----------| 
D-----2-------2-------2-------2----|-----2-------2-------2-------2----| 
A-4-------4-------4-------4--------|-0-------0-------0-------0--------| 
E----------------------------------|----------------------------------| 

                  Smile so     stealthily  
E-3---------------3----------------|----------------------------------| 
B------------1---------------1-----|---1-------1-------1-------1------| 
G-------0---------------0----------|-------2-------2-------2-------2--| 
D-----2-------2-------2-------2----|-----0-------0-------0-------0----| 
A-0-------0-------0-------0--------|-3-------3-------3-------3--------| 
E----------------------------------|----------------------------------| 

                          Buttery and brief 
E----------------------------------|----------------------------------| 
B---1-------1-------1-------1------|---0-------0------------0---0-----| 
G-------2-------2-------2-------2--|-------0-------0----------0-----0-| 
D-----0-------0-------0-------0----|-----------------0-4h-4-------0---| 
A-3-------3-------3-------3--------|-----5---5---5--------------------| 
E----------------------------------|-3--------------------------------| 

                  We lie through our teeth 
E----------------------------------|----------------------------------| 
B---0-------0-------0-------0------|---0-------0-------0-------0------| 
G-------0-------0-------0-------0--|-------5-------5-------5-------5--| 
D----------------------------------|-----4-------4-------4-------4----| 
A-----5---5---5---5---5---5---5----|-5-------5-------5-------5--------| 
E-3--------------------------------|----------------------------------| 

                  Shock all the      cavalry 
E----------------------------------|-0---------0-----0---------0------| 
B---0-------0-------0-------0------|----------------------------------| 
G-------5-------5-------5-------5--|-------0---------------0----------| 
D-----4-------4-------4-------4----|-----2-------2-------2-------2----| 
A-5-------5-------5-------5--------|-4-------4-------4-------4--------| 
E----------------------------------|----------------------------------| 

                Statues   watching    on 
E-0---------0-----0---------0------|-0---------------3----------------| 
B----------------------------------|------------1---------------1-----| 
G-------0---------------0----------|-------0---------------0----------| 
D-----2-------2-------2-------2----|-----2-------2-------2-------2----| 
A-4-------4-------4-------4--------|-0-------0-------0-------0--------| 
E----------------------------------|----------------------------------| 

                  Us    in   our     time bomb   
E-3---------------3----------------|----------------------------------| 
B------------1---------------1-----|---1-------1-------1-------1------| 
G-------0---------------0----------|-------2-------2-------2-------2--| 
D-----2-------2-------2-------2----|-----0-------0-------0-------0----| 
A-0-------0-------0-------0--------|-3-------3-------3-------3--------| 
E----------------------------------|----------------------------------| 

                                                  Cause nobody feels  
E----------------------------------|----------------------------------| 
B---1-------1-------1-------1------|---0-------0-------0-------0------| 
G-------2-------2-------2-------2--|-------0-------0-------0-------0--| 
D-----0-------0-------0-------0----|-----5-------5-------5-------5----| 
A-3-------3-------3-------3--------|-7-------7-------7-------7--------| 
E----------------------------------|----------------------------------| 

  old                                                at the muse- 
E----------------------------------|----------------------------------| 
B---0-------0-------0-------0------|---0-------0-------0-------0------| 
G-------8-------8-------8-------8--|-------0-------0-------0-------0--| 
D-----7-------7-------7-------7----|-----5-------5-------5-------5----| 
A-9-------9-------9-------9--------|-7-------7-------7-------7--------| 
E----------------------------------|----------------------------------| 

  -um                                                Nobody feels 
E----------------------------------|----------------------------------| 
B---0-------0-------0-------0------|---0-------0-------0-------0------| 
G-------0-------0-------0-------0--|-------0-------0-------0-------0--| 
D-----4-------4-------4-------4----|-----5-------5-------5-------5----| 
A-5-------5-------5-------5--------|-7-------7-------7-------7--------| 
E----------------------------------|----------------------------------| 
  cold                                               In the winter-  
E----------------------------------|----------------------------------| 
B---0-------0-------0-------0------|---0-------0-------0-------0------| 
G-------8-------8-------8-------8--|-------8-------8-------8-------8--| 
D-----7-------7-------7-------7----|-----7-------7-------7-------7----| 
A-9-------9-------9-------9--------|-9-------9-------9-------9--------| 
E----------------------------------|----------------------------------| 

 -gardens                                                we?ll roll on 
E----------------------------------|----------------------------------| 
B---1-------1-------1-------1------|---1-------1-------1-------1------| 
G-------2-------2-------2-------2--|-------2-------2-------2-------2--| 
D-----0-------0-------0-------0----|-----0-------0-------0-------0----| 
A-3-------3-------3-------3--------|-3-------3-------3-------3--------| 
E----------------------------------|----------------------------------| 

 nnnnn     roll onnnnnnn 
E-----------------|----------------------------------| 
B---1-------1-----|---0-------0------------0---0-----| 
G-------2-------2-|-------0-------0----------0-----0-| 
D-----0-------0---|-----------------0-4h-4-------0---| 
A-3-------3-------|-----5------5---------------------| 
E-----------------|-3-------3------------------------| 

      Cutting it fine with the cloak on 
E----------------------------------|----------------------------------| 
B---0-------0-------0-------0------|---0-------0-------0-------0------| 
G-------0-------0-------0-------0--|-------5-------5-------5-------5--| 
D----------------------------------|-----4-------4-------4-------4----| 
A-----5---5---5---5---5---5---5----|-5-------5-------5-------5--------| 
E-3--------------------------------|----------------------------------| 

                       We?ll     persevere 
E----------------------------------|-0---------0-----0---------0------| 
B---0-------0-------0-------0------|----------------------------------| 
G-------5-------5-------5-------5--|-------0---------------0----------| 
D-----4-------4-------4-------4----|-----2-------2-------2-------2----| 
A-5-------5-------5-------5--------|-4-------4-------4-------4--------| 
E----------------------------------|----------------------------------| 

                      Carry on       working there 
E-0---------0-----0---------0------|-0---------------3----------------| 
B----------------------------------|------------1---------------1-----| 
G-------0---------------0----------|-------0---------------0----------| 
D-----2-------2-------2-------2----|-----2-------2-------2-------2----| 
A-4-------4-------4-------4--------|-0-------0-------0-------0--------| 
E----------------------------------|----------------------------------| 

                  Me at the    museum    
E-3---------------3----------------|----------------------------------| 
B------------1---------------1-----|---1-------1-------1-------1------| 
G-------0---------------0----------|-------2-------2-------2-------2--| 
D-----2-------2-------2-------2----|-----0-------0-------0-------0----| 
A-0-------0-------0-------0--------|-3-------3-------3-------3--------| 
E----------------------------------|----------------------------------| 

               And you in the wintergardens 
E----------------------------------|----------------------------------| 
B---1-------1-------1-------1------|---0-------0------------0---0-----| 
G-------2-------2-------2-------2--|-------0-------0----------0-----0-| 
D-----0-------0-------0-------0----|-----------------0-4h-4-------0---| 
A-3-------3-------3-------3--------|-----5-------5--------------------| 
E----------------------------------|-3-------3------------------------| 

E----------------------------------|----------------------------------| 
B---0-------0------------0---0-----|---0-------0------------0---0-----| 
G-------0-------0----------0-----0-|-------0-------0----------0*----0-| 
D-----------------0-4h-4-------0---|-----------------0-4h-4-------0---| 
A-----5---5---5--------------------|-----5---5---5--------------------| 
E-3--------------------------------|-3--------------------------------| 

E----------------------------------|----------------------------------| 
B---0-------0------------0---0-----|----------------------------------| 
G-------0-------0----------0-----0-|----------------------------------| 
D-----------------0-4h-4-------0---|----------------------------------| 
A-----5---5---5--------------------|----------------------------------| 
E-3--------------------------------|-3--------------------------------| 
		  

See also:

tabs Deep Purple - Black Night tabs Deep Purple - Soldier Of Fortune tabs Deep Purple - Demon's Eye tabs Ira! - Envelheço na Cidade tabs Deep Purple - Smoke on the Water (correct) tabs Ira! - Tarde Vazia (Acústico)
e-chords

Other versions:

tabs Tiny Ruins - Me At The Museum You In The Wintergardens (live)
auto scroll beats size up size down change color hide chords drawings
tab show chords e-chords YouTube Clip e-chords hide all tabs e-chords go to top tab

share