Tiken Jah Fakoly

Tonton d'America

Tiken Jah Fakoly

tabs Easy easy

by  GAMER_123

save to print version add songbook text version e-mail correct tuner
chordsukulelecavacokeyboardtabbassdrumsharmonicaflute Guitar Pro
close

there isn't a video lesson for this song

chords

Tonton d'America

	  		accords: 
Cism x46654 
Fis  x47675 

Guitar-Intro: 

        
E||--------------------|---------------0----2----|--------------------| 
B||--2-----------------|---2--2--2--2------------|--4-----------------| 
G||--------------------|-------------------------|--------------------| 
D||--------------------|-------------------------|--------------------| 
A||--------------------|-------------------------|--------------------| 
E||--------------------|-------------------------|--------------------| 

 ||-------------------0----|---------------------|| 
 ||--2--2--2--2--4---------|--2------------------|| 
 ||------------------------|---------------------|| 
 ||------------------------|---------------------|| 
 ||------------------------|---------------------|| 
 ||------------------------|---------------------|| 

Bass : 

G||-------------------------|--------------------| 
D||--------------------6----|--------------------| 
A||--4---4-4--4--4--7-------|--------------------| 
E||-------------------------|--------------------| 

 ||-------------------------|---------------------| 
 ||--------------------4----|------------------2--|         
 ||--0---0-0--0--0--4-------|---------------------| 
 ||-------------------------|---------------------|  


       Cism       Cism   Fis Fis          
Tonton d'   Ame - ri - ca          

       Fis      Fis     Cism Cism 
Tonton d' Ame - ri - ca           2x 


Il est   arrivé Oncle Ben's avec un drapeau 
Voici du riz   "Il ne colle jamais" 
Il ne nous restait plus que la peau sur les os 
Alors distribution de Dakar à Lomé 
C'était du riz en grain américain 

Des sacs partout mais il n'y avait pas un seul bouquin 
Les hommes ont dit puisque c'est des colis 
Nous, on reste au lit 
Il nous a donné la recette du bonheur 
Il nous a même donné l'heure 

Tonton d'America 4x 

Il est arrivé habillé comme un cow-boy 
Il était beau comme un paquet de clopes 
Avec dans sa hotte la dernière gameboy 
Des jouets qui valaient une fortune 
Et une fusée pour aller sur la lune 

Tonton d'America 4x 

==Guitar-Intro== 

On a joué, quand les piles se sont usées 
Le cow-boy a repris sa gameboy,  
Il a dit aux moutons "c'est moi le shériff 
Vous serez les bad boys" 
On a beau dire mais quand on est nu 
Même au diable, on souhaite la bienvenue. 
Il a fait tous les endroits habités 
Et c'est depuis qu'aux quatre coins de la planète 
On est tous assis à faire la même dictée 
Tous à manger la même bouillie dans l'assiette 

Tonton d'America 4x 

Il a pris tout le zinc pour en faire le métro 
Il a pris nos cheveux, s'est fait la coupe afro 
Il a pris tout le café, il a pris tout le cuivre 
Il est parti sans nous laisser la marche à suivre. 

Tonton d'America 8x 

		  

See also:

tabs Abyssinians - Declaration of right tabs Horace Andy - Skylarking tabs The Gladiators - Stick a bush tabs Toots and the Maytals - Funky Kingston tabs Toots and the Maytals - 54-46 tabs Temptations - My girl
e-chords

Other versions:

tabs Tiken Jah Fakoly - Tonton d'America
auto scroll beats size up size down change color hide chords drawings
tab show chords e-chords YouTube Clip e-chords hide all tabs e-chords go to top tab

share