Thursday

home > Thursday

Understanding In A Car Crash (ver. 2) Tab

Thursday

Difficulty: nolevelnolevel

tuner correct add songbook print version text version save to e-mail
chordsukulelecavacokeyboardtabbassdrumsharmonicsflute Guitar Pro
chords

Understanding In A Car Crash (ver. 2)

  		Tuning: Drop D 
 
This tab has both guitar parts and is 100% right and it has every part in the song. 
Thursday Rules!!!!!!!!!!!! Get their new CD its sweet 
 
 
Guitar I(distortion): Intro (4x) 
E|-------------------------------------------------------------------------------- 
B|-------------5p0-------------5p0---------------------5p0-------------5p0-------- 
G|----5p0--0-------0--5p0--0-------0--5p0------5p0--0-------0--5p0----------0--5p0 
D|-7----------------------------------------3-----------------------3------------- 
A|-------------------------------------------------------------------------------- 
D|-------------------------------------------------------------------------------- 
Guitar II(distortion): Intro (4x) 
E|------------------------------------------------------------------------------- 
B|------------------------------------------------------------------------------- 
G|------------------------------------------------------------------------------- 
D|-0-0-0-0-0-0-0-0-0-0-0-0-0-0-0-0-0---3-3-3-5-5-5-3-3-3-5-5-5-3-3-3-5-5--------- 
A|-0-0-0-0-0-0-0-0-0-0-0-0-0-0-0-0-0---3-3-3-3-3-3-3-3-3-3-3-3-3-3-3-3-3--------- 
D|-0-0-0-0-0-0-0-0-0-0-0-0-0-0-0-0-0---3-3-3-3-3-3-3-3-3-3-3-3-3-3-3-3-3--------- 
 
Guitar II(clean) PreVerse: plays this up until the "In trying so hard" part 
E|----------------------------------------------------------0--------0------------ 
B|----0-----8----------------5p0---------------0-------------------------0---- 
G|------5------5-----7p5-------------------------5--------5--------5--------- 
D|--------7-------7-------0-------7---------3--------3--------3--------3------ 
A|-------------------------------------------------------------------------------- 
D|--0----------------------------------------------------------------------------- 
 
Guitar I:(clean) 1st Verse(delay effect) 
or you can just pick each note multiple times listen to song 
E|--15---0-------15----------15--15--0-------15----------------------------------- 
B|-------12--13------15--12----------12--13------15--12--------------------------- 
G|-------------------------------------------------------------------------------- 
D|-------------------------------------------------------------------------------- 
A|-------------------------------------------------------------------------------- 
D|-------------------------------------------------------------------------------- 
 
Guitar I and II(clean)"In trying so hard to look away from you" (2x) 
E|----------------------------------------------------------- 
B|----------------15---------------------13-12--------------- 
G|---------12-----------12--------12-----------12----12------ 
D|-----14------14----14---14---12------12---------12--------- 
A|--0------------------------0------------------------------- 
D|----------------------------------------------------------- 
 
Chorus - (4x) same as intro for both guitars 
 
Guitar I(clean) 2nd Verse (4x) strum 1st 3 chords(8x) then pick last one. 
E|-------------10----10-------------------- 
B|------9---8----8-----8------------------- 
G|--9---9---9------9-----9----------------- 
D|-10-------------------------------------- 
A|----------------------------------------- 
D|----------------------------------------- 
 
Guitar II(clean) 2nd Verse(4x) strum each chord (8x) 
E|----------------------------------------- 
B|------9---8--8--------------------------- 
G|--9---9---9--9--------------------------- 
D|-10-------------------------------------- 
A|----------------------------------------- 
D|----------------------------------------- 
 
Guitar I(clean): "Broken Watch You Gave Me"  
E|----------------------------------------------------------- 
B|----------------15----------------------------------------- 
G|---------12-----------12--------12------13--12----12--------- 
D|-----14------14----14---14---12------12--------12----12------ 
A|--0------------------------0------------------------------- 
D|----------------------------------------------------------- 
 
Guitar I (clean) strums chords 
"...So push the seats back a little farther.." (4x) 
E|-0-0-0-0-0-0-0/-0-0-0-0-0-0-0/-0-0-0-0-0-0-0/-0-0-0-0-0-0-0-- 
B|-8-8-8-8-8-8-8/-6-6-6-6-6-6-6/-1-1-1-1-1-1-1/-3-3-3-3-3-3-3-- 
G|------------------------------------------------------------- 
D|------------------------------------------------------------- 
A|------------------------------------------------------------- 
D|------------------------------------------------------------- 
Guitar II(clean) picks chords 
"So push the seats back a little farther" (4x) 
E|--0-----0--0/--0/-----0-----0--0--0-----0-----0-----0-------0-----0-----0-----0- 
B|-----8--8--8/--6/--6-----6-----1--1--1-----1-----1-----1/3-----3-----0-----0---- 
G|-------------------------------------------------------------------------------- 
D|-------------------------------------------------------------------------------- 
A|-------------------------------------------------------------------------------- 
D|-------------------------------------------------------------------------------- 
 
Back to chorus(4x) 
Then play 2nd verse again 
 
Guitar I(distortion)"Spinning hubcabs set the tempo" (2x) 
E|-------------------------------------------------------------------------------- 
B|-------------------------------------------------------------------------------- 
G|--12/14-14--14/16-16-16/17--17/19--\12------------------------------------------ 
D|--x-----x---x-----x---x------x------x------------------------------------------- 
A|--10/12-12--12/14-14-14/15--15/17--\10------------------------------------------ 
D|-------------------------------------------------------------------------------- 
 
Guitar II(distortion)"Spinning hubcabs set the tempo" (2x) 
E|-------------------------------------------------------------------- 
B|---------------------9-9-9--9-9-9--8-8-8--8-8-8--8-8-8--8-8-8------- 
G|--9--9--9---9--9--9--9-9-9--9-9-9--9-9-9--9-9-9--9-9-9--9-9-9------- 
D|-10-10-10--10-10-10------------------------------------------------- 
A|-------------------------------------------------------------------- 
D|-------------------------------------------------------------------- 
 
Guitar I(distortion): Interlude (4x) 
E|--15----------15---------------------------------------------------------------- 
B|------12--13------12-13-------------------------------------------------------- 
G|-------------------------------------------------------------------------------- 
D|-------------------------------------------------------------------------------- 
A|-------------------------------------------------------------------------------- 
D|-------------------------------------------------------------------------------- 
 
Guitar II(clean) Interlude(4x) 
E|-------------------------------------------------------------------- 
B|--------------------9-9-9-9-9-9-8-8-8-8-8-8-8-8-8-8-8-8------- 
G|--9--9--9--9--9--9--9-9-9-9-9-9-9-9-9-9-9-9-9-9-9-9-9-9------- 
D|-10-10-10-10-10-10------------------------------------------------- 
A|-------------------------------------------------------------------- 
D|-------------------------------------------------------------------- 
 
Guitar I(distortion) "..Staring at the setting sun.." - (2x) 
E|-------------------------------------------------------------------------------- 
B|-------------------------------------------------------------------------------- 
G|--12/14-14--14\12--12--12/16--16--16\14--14--12--------------------------------- 
D|--x--x---x---x--x---x---x--x---x---x-x----x---x---------------------------------- 
A|--10/12-12--12\10--10--10/14--14--14\12--12--10--------------------------------- 
D|-------------------------------------------------------------------------------- 
 
Guitar II(distortion) "..Staring at the setting sun.." (4x) 
this continues into the "I don't want to feel this way forever" part 
E|----------------------------------------------------------------- 
B|-----------------------------3-3-3---3-3-3----------------------- 
G|--------/16----------/17-----2-2-2---2-2-2----------------------- 
D|-7-7-7--/x---3-3-3---/x------0-0-0---0-0-0----------------------- 
A|-7-7-7--/14--3-3-3---/15-----0-0-0---0-0-0----------------------- 
D|-7-7-7-------3-3-3-----------0-0-0---0-0-0----------------------- 
 
Guitar I (distortion):"I don't want to feel this way forever" - (2x) 
E|-------------------------------------------------------------------------------- 
B|-------------------------------------------------------------------------------- 
G|--12/14-14--14/16-16-16/17--17--17/19--19----------------------------------------- 
D|--x---x--x---x--x--x--x--x---x---x--x---x------------------------------------------ 
A|--10/12-12--12/14-14-14/15--15--15/17--17----------------------------------------- 
D|-------------------------------------------------------------------------------- 
 
Guitar I(distortion): Outro (4x) 
E|----------------------------------------------------------------- 
B|----------------------------------------------------------------- 
G|----------------------------------------------------------------- 
D|-7-7-7--7-7-7--5-5-5--5-5-5--0-0-0--0-0-0--0-0-0--0-0-0---------- 
A|-7-7-7--7-7-7--3-3-3--3-3-3--0-0-0--0-0-0--0-0-0--0-0-0---------- 
D|-7-7-7--7-7-7--3-3-3--3-3-3--0-0-0--0-0-0--0-0-0--0-0-0---------- 
 
Guitar I(distortion): Outro (8x) 
E|--15----------15------------------ 
B|------12--13------12-13----------- 
G|---------------------------------- 
D|---------------------------------- 
A|---------------------------------- 
D|---------------------------------- 
 
Guitar I(distortion) : End on and let ring 
E|-------------------------- 
B|-------------------------- 
G|-------------------------- 
D|-9------------------------ 
A|-7------------------------ 
D|-7------------------------ 
 
Guitar II(distortion): End on and let ring 
E|---------------------------- 
B|---------------------------- 
G|--12------------------------ 
D|---------------------------- 
A|---------------------------- 
D|---------------------------- 
 

	  

Full key step upFull key step up
Half key step upHalf key step up
Half key step downHalf key step down
Full key step downFull key step down
Search Paypal
auto scroll beats size up size down change color hide chords drawings
tab show chords e-chords YouTube Clip e-chords hide all tabs e-chords go to top tab