Thursday

Signals Over The Air (ver. 3)

Thursday

tabs

save to print version add songbook text version e-mail correct tuner
chordsukulelecavacokeyboardtabbassdrumsharmonicaflute Guitar Pro
close

there isn't a video lesson for this song

chords

Signals Over The Air (ver. 3)

	  		I'm not sure if the song is right but I'm sure the Intro is 
 
 
 
Intro 
e---5-7h5------------------------------| 
B-5-5----7h5-6h5--------5-6h5----------| 
G-5-------------7h5---5-5----7h5-7h5-4-| 
D---------------------5---------------7| 
A--------------------------------------| 
E--------------------------------------| 
 
 
VERSE  
Guitar 1 x6 
e|-----------------------------------------------------| 
B|-5-10--10h13p10-8---8--------5-----------------------| 
G|-5--X-------------9---9-7h9--5-9--10-9-7-9-7---------| 
D|-7--9------------------------7-9-------------10-9p7--| 
A|-----------------------------------------------------| 
D|-----------------------------------------------------| 
Guitar 2 comes in after x3, play x2 
e|---8--8--8--8--8--8--10-10-10-10-10-10--12-12-12-12-12--15-15-15-15-15--| 
B|--10-10-10-10-10-10--12-12-12-12-12-12--13-13-13-13-13--17-17-17-17-17--| 
G|------------------------------------------------------------------------| 
D|------------------------------------------------------------------------| 
A|------------------------------------------------------------------------| 
D|------------------------------------------------------------------------| 
 
 
PRE-CHORUS 
Guitar 1 x3 
e|-------------------------------| 
B|----13-13-10-0----8---8---8----| 
G|-14b-----------12---9---9---9--| 
D|-------------------------------| 
A|-------------------------------| 
D|-------------------------------| 
Guitar 2 x1 
e|---8--8--8--8--8--8--10-10-10-10-10-10--12-12-12-12-12--15-15-15-15-15--| 
B|--10-10-10-10-10-10--12-12-12-12-12-12--13-13-13-13-13--17-17-17-17-17--| 
G|------------------------------------------------------------------------| 
D|------------------------------------------------------------------------| 
A|------------------------------------------------------------------------| 
D|------------------------------------------------------------------------| 
 
 
CHORUS x1 
Guitar 1+2 
e---------------------------------------------------------------------------| 
B---------------------------------------------------------------------------| 
G-------------------------------4-5-5/7-7-7----14-14---17-17-16/17/16/17-16-| 
D--9-9-9-9-9-9-x-x-9-9-9-9-9-9--x-x-x/x-x-x-----x--x----x--x--x/-x/-x/-x--x-| 
A--7-7-7-7-7-7-x-x-7-7-7-7-7-7--2-3-3/5-5-5----12-12---15-15-14/15/14/15-14-| 
D--7-7-7-7-7-7-x-x-7-7-7-7-7-7----------------------------------------------| 
           				        
e-------------------------------------------------------------------------| 
B-------------------------------------------------------------------------| 
G-------------------14-14-14-14-14---16/17-17--19191919191919--2121212121-| 
D--9-9-9-9-9-9-x-x---x--x--x--x--x----x/-x--x---x-x-x-x-x-x-x---x-x-x-x-x-| 
A--7-7-7-7-7-7-x-x--12-12-12-12-12---14/15-15--17171717171717--1919191919-| 
D--7-7-7-7-7-7-x-x--------------------------------------------------------| 
					        ...........t.p........... 
e-----------------------------------------| 
B-----------------------------------------| 
G--1919191919--171717--16-17-16-17-16~----| 
D---x-x-x-x-x---x-x-x---x--x--x--x--x~----| 
A--1717171717--151515--14-15-14-15-14~----| 
D-----------------------------------------| 
    ....t.p.. 
 
 
VERSE 
Guitar 1 x2 
e|-----------------------------------------------------| 
B|-5-10--10h13p10-8---8--------5-----------------------| 
G|-5--X-------------9---9-7h9--5-9--10-9-7-9-7---------| 
D|-7--9------------------------7-9-------------10-9p7--| 
A|-----------------------------------------------------| 
D|-----------------------------------------------------| 
Guitar 2 x1 
e|---8--8--8--8--8--8--10-10-10-10-10-10--12-12-12-12-12--15-15-15-15-15--| 
B|--10-10-10-10-10-10--12-12-12-12-12-12--13-13-13-13-13--17-17-17-17-17--| 
G|------------------------------------------------------------------------| 
D|------------------------------------------------------------------------| 
A|------------------------------------------------------------------------| 
D|------------------------------------------------------------------------| 
 
 
PRE-CHORUS 
Guitar 1 x4 
e|-------------------------------| 
B|----13-13-10-0----8---8---8----| 
G|-14b-----------12---9---9---9--| 
D|-------------------------------| 
A|-------------------------------| 
D|-------------------------------| 
Guitar 2 x1 
e|---8--8--8--8--8--8--10-10-10-10-10-10--12-12-12-12-12--15-15-15-15-15--| 
B|--10-10-10-10-10-10--12-12-12-12-12-12--13-13-13-13-13--17-17-17-17-17--| 
G|------------------------------------------------------------------------| 
D|------------------------------------------------------------------------| 
A|------------------------------------------------------------------------| 
D|------------------------------------------------------------------------| 
 
 
CHORUS x1 
Guitar 1+2 
e---------------------------------------------------------------------------| 
B---------------------------------------------------------------------------| 
G-------------------------------4-5-5/7-7-7----14-14---17-17-16/17/16/17-16-| 
D--9-9-9-9-9-9-x-x-9-9-9-9-9-9--x-x-x/x-x-x-----x--x----x--x--x/-x/-x/-x--x-| 
A--7-7-7-7-7-7-x-x-7-7-7-7-7-7--2-3-3/5-5-5----12-12---15-15-14/15/14/15-14-| 
D--7-7-7-7-7-7-x-x-7-7-7-7-7-7----------------------------------------------| 
           				        
e-------------------------------------------------------------------------| 
B-------------------------------------------------------------------------| 
G-------------------14-14-14-14-14---16/17-17--19191919191919--2121212121-| 
D--9-9-9-9-9-9-x-x---x--x--x--x--x----x/-x--x---x-x-x-x-x-x-x---x-x-x-x-x-| 
A--7-7-7-7-7-7-x-x--12-12-12-12-12---14/15-15--17171717171717--1919191919-| 
D--7-7-7-7-7-7-x-x--------------------------------------------------------| 
					        ...........t.p........... 
e-----------------------------------------| 
B-----------------------------------------| 
G--1919191919--171717--16-17-16-17-16~----| 
D---x-x-x-x-x---x-x-x---x--x--x--x--x~----| 
A--1717171717--151515--14-15-14-15-14~----| 
D-----------------------------------------| 
    ....t.p.. 
 
 
FILL x8 
Guitar 1 
e|-----------------------------------------| 
B|----------20----17-----------------------| 
G|----17----------------19----16-17-16-----| 
D|-19----19----19----19----19----------19--| 
A|-----------------------------------------| 
D|-----------------------------------------| 
 
 
INTERLUDE (listen for p.m. and strums) 
e|-----------| 
B|-----------| 
G|-5------5--| 
D|-7-7--9-7--| 
A|---5-10----| 
D|-----------| 
 
 
BRIDGE 
Guitar 1+2 x2                          x1 
e|------------------------------------|----| 
B|------------------------------------|----| 
G|------------------------------------|----| 
D|-7-7-7-7--2-2-2-2--7-7-7-7--2-2-2-2-|-0~-| 
A|-7-7-7-7--2-2-2-2--7-7-7-7--2-2-2-2-|-0~-| 
D|-7-7-7-7--2-2-2-2--7-7-7-7--2-2-2-2-|-0~-| 
 
Guitar 1or2 x2 
e|-------------------15-13-12-------------------------------15-13-12-----------| 
B|-10-10-10-10-10-------------15-13-12----10-10-10-10-10-------------15-13-12--| 
G|-----------------------------------------------------------------------------| 
D|-----------------------------------------------------------------------------| 
A|-----------------------------------------------------------------------------| 
D|-----------------------------------------------------------------------------| 
 
 
CHORUS x1 
Guitar 1+2 
e---------------------------------------------------------------------------| 
B---------------------------------------------------------------------------| 
G-------------------------------4-5-5/7-7-7----14-14---17-17-16/17/16/17-16-| 
D--9-9-9-9-9-9-x-x-9-9-9-9-9-9--x-x-x/x-x-x-----x--x----x--x--x/-x/-x/-x--x-| 
A--7-7-7-7-7-7-x-x-7-7-7-7-7-7--2-3-3/5-5-5----12-12---15-15-14/15/14/15-14-| 
D--7-7-7-7-7-7-x-x-7-7-7-7-7-7----------------------------------------------| 
           				        
e-------------------------------------------------------------------------| 
B-------------------------------------------------------------------------| 
G-------------------14-14-14-14-14---16/17-17--19191919191919--2121212121-| 
D--9-9-9-9-9-9-x-x---x--x--x--x--x----x/-x--x---x-x-x-x-x-x-x---x-x-x-x-x-| 
A--7-7-7-7-7-7-x-x--12-12-12-12-12---14/15-15--17171717171717--1919191919-| 
D--7-7-7-7-7-7-x-x--------------------------------------------------------| 
					        ...........t.p........... 
e-----------------------------------------| 
B-----------------------------------------| 
G--1919191919--171717--16-17-16-17-16~----| 
D---x-x-x-x-x---x-x-x---x--x--x--x--x~----| 
A--1717171717--151515--14-15-14-15-14~----| 
D-----------------------------------------| 
    ....t.p.. 
 
 
FILL x11 
Guitar 1 
e|-----------------------------------------| 
B|----------20----17-----------------------| 
G|----17----------------19----16-17-16-----| 
D|-19----19----19----19----19----------19--| 
A|-----------------------------------------| 
D|-----------------------------------------| 
 

		  

See also:

tabs Chuck Berry - Johnny B. Goode tabs The Offspring - Come Out and Play tabs Creed - With arms wide open tabs Jack Johnson - Do You Remember tabs Guns N' Roses - November Rain tabs Bon Jovi - Always
e-chords

Other versions:

tabs Thursday - Signals Over The Air tabs Thursday - Signals Over The Air (ver. 2) tabs Thursday - Signals Over The Air (ver. 3)
auto scroll beats size up size down change color hide chords drawings
tab show chords e-chords YouTube Clip e-chords hide all tabs e-chords go to top tab

share